Mest - Chance Of A Lifetime Chords & Tabs

 

Chance Of A Lifetime Chords & Tabs

Mest Chords & Tabs

Version: 1 Type: Tab 0 ratings
1 star 2 stars 3 stars 4 stars 5 stars
comments

Chance Of A Lifetime Tab

#---------------------------------------------------------------------------#
#-- File created with Instab - http://www.pconline.com/~smcarey/instab.html #
#----------------------------------------------------------------------------#

Author/Artist: mest
Title: chance of a lifetime
Album: mest
Transcribed by: kyle
Email: infected41@hotmail.com

***You Must Figure Out How Many Strums For Each Chord***

intro repeat as necessary

-3-3-3-3--2-2-2-2--0-0-0-0---------------------------------------------------|
-3-3-3-3--3-3-3-3--1-1-1-1---------------------------------------------------|
-0-0-0-0--2-2-2-2--0-0-0-0---------------------------------------------------|
-0-0-0-0-----------2-2-2-2---------------------------------------------------|
-2-2-2-2-----------3-3-3-3---------------------------------------------------|
-3-3-3-3---------------------------------------------------------------------|

 verse repeat as necesarry
[ Tab from: http://www.guitartabs.cc/tabs/m/mest/chance_of_a_lifetime_tab.html ]
-3-3-3-3--3-3-3-3--3-3-3-3--3-3-3-3--3-3-3-3--3-3-3-3------------------------|
-3-3-3-3--3-3-3-3--2-2-2-2--3-3-3-3--3-3-3-3--2-2-2-2------------------------|
-0-0-0-0--0-0-0-0--3-3-3-3--0-0-0-0--0-0-0-0--3-3-3-3------------------------|
-0-0-0-0--0-0-0-0-----------2-2-2-2--2-2-2-2---------------------------------|
-2-2-2-2--2-2-2-2-----------2-2-2-2--2-2-2-2---------------------------------|
-3-3-3-3--3-3-3-3------------------------------------------------------------|

 chorus repeat as necessary

-3-3---2-2--0-0-0-0--0-0-0-0-x2--3-3---2-2--0-0-0-0-0------------------------|
-3-3---3-3--1-1-1-1--1-1-1-1-----3-3---3-3--1-1-1-1-1------------------------|
-0-0---2-2--0-0-0-0--0-0-0-0-----0-0---2-2--0-0-0-0-0------------------------|
-0-0--------2-2-2-2--2-2-2-2-----2-2--------2-2-2-2-2------------------------|
-2-2--------3-3-3-3--3-3-3-3-----2-2--------3-3-3-3-3------------------------|
-3-3-----------------------------0-0-----------------------------------------|
Comments