Mest - Breakin Down Chords & Tabs

 

Breakin Down Chords & Tabs

Mest Chords & Tabs

Version: 1 Type: Tab 0 ratings
1 star 2 stars 3 stars 4 stars 5 stars
comments

Breakin Down Tab

Sorry its jus the inro but ill put the rest l8er peace out
------------------------------------------------------------
------------------------------------------------------------
-----44-------------------44------------------4-------------
-----44---44---22---44----44---44---22---44---4-------------
-----22---44---22---44----22---44---22---44---2-------------
----------22---00---22---------22---00---22-----------------
[ Tab from: http://www.guitartabs.cc/tabs/m/mest/breakin_down_tab.html ]
Heres the Guitar 1 solo too           (4x)
------------------------------------------------------------
------86-84-433334------------------------------------------
------------------------------------------------------------
------------------------------------------------------------
------------------------------------------------------------
------------------------------------------------------------

Guitar 2 solo                  (4x)
------------------------------------------------------------
------------------------------------------------------------
-----44-----------------------------------------------------
-----44---44---22---44--------------------------------------
-----22---44---22---44--------------------------------------
----------22---00---22--------------------------------------
Comments