Mest - 2000 Miles Chords & Tabs

 

2000 Miles Chords & Tabs

Mest Chords & Tabs

Version: 1 Type: Tab 0 ratings
1 star 2 stars 3 stars 4 stars 5 stars
comments

2000 Miles Tab

2000 miles,
one of the new, mest songs
tabbed by: Al-x punk

100% correct
you must figure out the timing
PM:PALM MUTED
DT:DISTORTED
[]:LET RING
():FASTER

INTRO/VERSE
E----------------------------------
B----------------------------------
G----------------------------------
D--10--5--7--5--3--------3--5------
A--10--5--7--5--3--X2----3--5------
E--8---3--5--3--1--------1--3------
  PM  PM PM PM PM        PM DT
[ Tab from: http://www.guitartabs.cc/tabs/m/mest/2000_miles_tab.html ]
CHORUS
E----------------------------------
B----------------------------------
G----------------------------------
D-10--5--3--5--7--5--3--[5]--------
A-10--5--3--5--7--5--3--[5]--------
E-8---3--1--3--5--3--1--[3]--------
  DT  DT DT DT DT DT DT DT

VERSES
E----------------------------------
B----------------------------------
G----------------------------------
D-(10)--5--7--5--3-------3---5-----
A-(10)--5--7--5--3-------3---5-----
E--(8)--3--5--3--1-------1---3-----
   PM  PM  PM PM PM      PM  DT

THEN ALTERNATE CHORUS AND VERSES


i havent listened to the whole song, 
but i tabbed everything i have.
have fun
mail me TO THEALXPUNK@HOTMAIL.COM
Comments