Messiah Prophet - Heavy Metal Thunder Chords & Tabs

 

Heavy Metal Thunder Chords & Tabs

Messiah Prophet Chords & Tabs

Version: 1 Type: Tab 1 rating
1 star 2 stars 3 stars 4 stars 5 stars
comments

Heavy Metal Thunder Tab

   
Song: HEAVY METAL THUNDER
Written and Performed by: Messiah Prophet
CD: Master of the Metal -- 1986 Pure Metal Records
Tabbed by: Mitch (stick_man2000@hotmail.com)

This is my first tab, so please leave lots of comments/corrections so I
can learn from my mistakes.


Intro:

e-----------------------------------------------|
B-----------------------------------------------|
G-4---6--7---11--9------9-------4---6-7---11--9-|
D-4---6--7---11--9----------9---4---6-7---11--9-|
A-2---4--5----9--7--------------2---4-5----9--7-|
E-----------------------------------------------|


Verse Transition:

e---|
B---|
G---|
D-9-|
A-9-|
E-7-|


Verse:

e---------------------------------------------------------------|
B---------------------------------------------------------------|
G--------------------------7--9---------------------------------|
D-9-9-7-9-9-9-7-9-9-9-7-7--7--9---9-9-7-9-9-9-7-9-9-9-7-7--5--7-| x6
A-9-9-7-9-9-9-7-9-9-9-7-7--5--7---9-9-7-9-9-9-7-9-9-9-7-7--5--7-|
E-7-7-5-7-7-7-5-7-7-7-5-5---------7-7-5-7-7-7-5-7-7-7-5-5--3--5-|


Pre-chorus:

e-----------------------------------------------------------------|
B-----------------------------------------------------------------|
G---------------7------9------7-----------------7-7-7-7-7-7-7-7---|
D-9------7------7------9------5---9------7------7-7-7-7-7-7-7-7-7-|
A-9------7------5------7------5---9------7------5-5-5-5-5-5-5-5-7-|
E-7------5------------------------7------5----------------------5-|


Chorus:

e-----------------------------|-----------------------------------|
B-----------------------------|-----------------------------------|
G-9------7-------------9----7-|-9------7------------------------7-|
D-9------7------7------9----7-|-9------7------7-7-7-7-7-7-7-7-7-7-|
A-7------5------7------7----5-|-7------5------7-7-7-7-7-7-7-7-7-5-|
E---------------5-------------|---------------5-5-5-5-5-5-5-5-5---|


Verse:

e---------------------------------------------------------------|
B---------------------------------------------------------------|
G--------------------------7--9---------------------------------|
D-9-9-7-9-9-9-7-9-9-9-7-7--7--9---9-9-7-9-9-9-7-9-9-9-7-7--5--7-| x5
A-9-9-7-9-9-9-7-9-9-9-7-7--5--7---9-9-7-9-9-9-7-9-9-9-7-7--5--7-|
E-7-7-5-7-7-7-5-7-7-7-5-5---------7-7-5-7-7-7-5-7-7-7-5-5--3--5-|


Pre-chorus:

e-----------------------------------------------------------------|
B-----------------------------------------------------------------|
G---------------7------9------7-----------------7-7-7-7-7-7-7-7---|
D-9------7------7------9------5---9------7------7-7-7-7-7-7-7-7-7-|
A-9------7------5------7------5---9------7------5-5-5-5-5-5-5-5-7-|
E-7------5------------------------7------5----------------------5-|

[ Tab from: http://www.guitartabs.cc/tabs/m/messiah_prophet/heavy_metal_thunder_tab.html ]
Chorus:
             
e-----------------------------|-----------------------------------|
B-----------------------------|-----------------------------------|
G-9------7-------------9----7-|-9------7------------------------7-|
D-9------7------7------9----7-|-9------7------7-7-7-7-7-7-7-7-7-7-|
A-7------5------7------7----5-|-7------5------7-7-7-7-7-7-7-7-7-5-|
E---------------5-------------|---------------5-5-5-5-5-5-5-5-5---|


Bridge:

e-------------------------------------------------------------|
B-------------------------------------------------------------|
G---------------------------------9--7--7-7-7-7-7-7-7-7-7-7-7-|
D--5-6-7--7-7-7--9--10--10-10-10--9--7--7-7-7-7-7-7-7-7-7-7-7-| x4
A--5-6-7--7-7-7--9--10--10-10-10--7--5--5-5-5-5-5-5-5-5-5-5-5-|
E--3-4-5--5-5-5--7---8---8--8--8------------------------------|


Verse:

e---------------------------------------------------------------|
B---------------------------------------------------------------|
G--------------------------7--9---------------------------------|
D-9-9-7-9-9-9-7-9-9-9-7-7--7--9---9-9-7-9-9-9-7-9-9-9-7-7--5--7-| x4
A-9-9-7-9-9-9-7-9-9-9-7-7--5--7---9-9-7-9-9-9-7-9-9-9-7-7--5--7-|
E-7-7-5-7-7-7-5-7-7-7-5-5---------7-7-5-7-7-7-5-7-7-7-5-5--3--5-|


Pre-chorus:

e-----------------------------------------------------------------|
B-----------------------------------------------------------------|
G---------------7------9------7-----------------7-7-7-7-7-7-7-7---|
D-9------7------7------9------5---9------7------7-7-7-7-7-7-7-7-7-|
A-9------7------5------7------5---9------7------5-5-5-5-5-5-5-5-7-|
E-7------5------------------------7------5----------------------5-|


Chorus (1):
                   
e-----------------------------|
B-----------------------------|
G-9------7-------------9----7-|
D-9------7------7------9----7-| x2
A-7------5------7------7----5-|
E---------------5-------------|


Chorus (2):
             
e-----------------------------------|
B-----------------------------------|
G-9------7------------------------7-|
D-9------7------7-7-7-7-7-7-7-7-7-7-|
A-7------5------7-7-7-7-7-7-7-7-7-5-|
E---------------5-5-5-5-5-5-5-5-5---|


Closing:

e---------------------------------------------------------------
B---------------------------------------------------------------
G---------------------------------7-7-7-7-7-7-7-7-9-9-9-9-9--7--
D-9-9-9-9-9-9-9-9-7-7-7-7-7-7-7-7-7-7-7-7-7-7-7-7-9-9-9-9-9--7--
A-9-9-9-9-9-9-9-9-7-7-7-7-7-7-7-7-5-5-5-5-5-5-5-5-7-7-7-7-7--5--
E-7-7-7-7-7-7-7-7-5-5-5-5-5-5-5-5-------------------------------

e-------------------------------------------------------------------|
B-------------------------------------------------------------------|
G----------------------------------7-7-7-7-7-7-7-7------7-7---------|
D-9--9-9-9-9-9-9-9-7-7-7-7-7-7-7-7-7-7-7-7-7-7-7-7-7----7-7--7-7--7-|
A-9--9-9-9-9-9-9-9-7-7-7-7-7-7-7-7-5-5-5-5-5-5-5-5-7----5-5--7-7--9-|
E-7--7-7-7-7-7-7-7-5-5-5-5-5-5-5-5-----------------5---------5-5--9-|
Comments