Mercyful Fate - Evil Chords & Tabs

 

Evil Chords & Tabs

Mercyful Fate Chords & Tabs

Version: 1 Type: Bass Tab 0 ratings
1 star 2 stars 3 stars 4 stars 5 stars
comments

Evil Bass Tab

        |                                                                       |
        |                             MERCYFUL FATE                             |
     ___|___                          E   V   I   L                          ___|___ 
        |                             M E L I S S A                             |
        |                             1   9   8   3                             |


--------------------------
--------------------------
-3-3-3---3-3-3--3-3---0---
--------------------3-----

-------------------------------------------
-------------------------------------------
-7/--7/--7/--7/--3-3-3---3-3-3--3-3--------
------------------------------------3-2-0--

----------------------------------------------------------------------------------
----------------------------------------------------------------------------------
----------------------------------------------------------------------------------
-5-7-5-------5-7-5----------------------5-7-5----------------------5-7-5----
-------0-----------0--0-3-0--0-3-0--0-3-------0--0-3-0--0-3-0--0-3--------------
                                                                                     1       2
------------------------------------------------------------------------------------|-------|------
------------------------------------------------------------------------------------|-------|------
-2-2-2-2-2-2-2-2-0-2-5--2-2-2-2-2-2-2-2-0-2-5-----------------0-2-5-2-2-2-2-2-2-2-2-|-0-2-5-|-0----
----------------------------------------------3-3-3-3-3-3-3-3-----------------------|-------|---3--

                                1,2,3  4
-------------------------------|-----|---
-------------------------------|-----|---
-------------------------5-7-5-|-7---|---
-0--0-3--0--0-3--0--0-3--------|-----|---

------------------------------------------------------------------------------------
------------------------------------------------------------------------------------
--------------------5-3-3-3-3-3-3-3-3-2--0-0-0-0-0-0-0-0-0--4-4-4-4-4-4-4-4-4-4-5-7-
-2-2-2-2-2-2-2-2-2------------------------------------------------------------------

                                1,2,3  4
-------------------------------|-----|---
-------------------------------|-----|---
-------------------------5-7-5-|-7---|---
-0--0-3--0--0-3--0--0-3--------|-----|---

------------------------------------------------------------------------------------
------------------------------------------------------------------------------------
--------------------5-3-3-3-3-3-3-3-3-2--0-0-0-0-0-0-0-0-0--4-4-4-4-4-4-4-4-4-4-5-7-
-2-2-2-2-2-2-2-2-2------------------------------------------------------------------

                                1,2,3  4
-------------------------------|-----|---
-------------------------------|-----|---
-------------------------5-7-5-|-7---|---
-0--0-3--0--0-3--0--0-3--------|-----|---
[ Tab from: http://www.guitartabs.cc/tabs/m/mercyful_fate/evil_btab.html ]
--------------------------------------------------------------------
--------------------------------------------------------------------
--------------------------------------------------------------------
-5--5-8-5--5-8-5--5-8-5--3-5-3-5--5--5-8-5--5-8-5--5-8-5--3-5-3-5---

                                   1,3,       2,          4
----------------------------------|----------|-----------|----------
----------------------------------|----------|-----------|----------
--------5-3---------3---------5-3-|----------|---------3-|--------3-
5-5-3-5-----3-3-0-1---5-5-3-5-----|-3-3--1-1-|-3-3-0-1---|--3-3--1--
                  
---------------------------------------
---------------------------------------
--------3----------5-5--3-3--1----3-5-- 
1-1---0----0-5-5-----------------------

                                  1,2,3  4 
---------------------------------|------|----
---------------------------------|------|----
--------5----------7-7--5-5--3---|/7-5--|-2--
3-3---3----3-7-7-----------------|------|----
 
              1,2,3  4
-------------|------|-----
-------------|------|-----
-------------|---3--|-----
-5-5-5-5-5-5-|-3----|-1-3-

                1,2,3 4
---------------|-----|-------
---------------|-----|-------
-3-3-3-3-3-3-3-|-1-3-|-3-2-0-
---------------|-----|-------

-------------------------------------
-------------------------------------
--0-0-0-0-0-0-0-0-0-0-0-0-0-0-0------
---------------------------------3---

------------------------------------------------------
-------------------------3----------------------------
--2-2-2-2---5--2-2-2-2------2-2-2-2-2---5----------0--
--------------------------------------------0--2-3----

---------------------------------------------------
---------------------------------------------------
--4-4-4-4-4-4-4-----------4-4-4-4-4-4-4---4--2-----
------------------3-3-3-3--------------------------
                                                                                 1                    2
--------------------||-----------------------------------------------------|-------------|--------------------------
--------------------||--------------------------------3--------------------|-------------|--------------------------
------------------5-||--2--2-2-2-2-2--5-2--2-2-2-2-2-----2--2-2-2-2-2--5---|----------5--|--------------------------
-5-5-5-5-5-5-5-5----||-----------------------------------------------------|-0--2-3-5----|-0--2-3-5--7-5--7-8--7--7-

/metal_up_your_ass@2die4.com

Notes:
This one was a real tough one. The last notes is probably wrong, but it ended up pretty well. Don´t you think?
This is (in case you're a dumbass and haven't noticed) a bass tab. It sounds nice in other keys, but it´s 
recorded in EADGBE (Standard Tuning). Make sure that you have the rest of my MF-basstabs... If not;
MAIL ME!

man, im glad this shit is over...... 


"That's about all I can handle doing, typing in this tab is hell!" - Kaz Shinyashiki (Tue, 12 May 1992 18:52:32 GMT)
Comments