Mercyful Fate - Buried Alive Chords & Tabs

 

Buried Alive Chords & Tabs

Mercyful Fate Chords & Tabs

Version: 2 Type: Tab 0 ratings
1 star 2 stars 3 stars 4 stars 5 stars
comments

Buried Alive Tab

   
                               M E R C F U L  F A T E   
                               **********************               
                               B U R I E D  A L I V E
                               TAKEN FROM THE ALBUM 9
                                             


Riff 1
---------
---------
---------
---------
---7---8-
-0---0---

Riff 2                  
-----------------------
-----------------------
-----------------------
-----------------------
---------------9-8-5-4-
---7-6-3-2-------------
-0---------0-----------

Riff 3                Riff 4
---------------------|-------------------
---------------------|-------------------
---------------------|-------------------
---------------------|---------6-6h7p6---
--7---8--2--2-3-5-7--|---7---8---------8-
0---0----------------|-0---0-------------

Riff 5          Riff 6
---------------|---------------------
---------------|---------------------
---------------|---------------------
---9-8--5-4-2--|---9---8--8-8-8-8-8--
---7-6--3-2-0--|---7---6--8-8-8-8-8--
-0-------------|-0---0----6-6-6-6-6--


Riff 7
-----------------------------------------------------------
-----------------------------------------------------------
-----------------------------------------------------------
-------------------------------------------7---------------
---4-----4---4-4-----5-5-------5----4---4--5--7--3--5--7-8-
-2-2-2-2-2-2-2-2-2-2-3-3-3-3-3-3--2-2-2-2-----5--1--3--5-6-
[ Tab from: http://www.guitartabs.cc/tabs/m/mercyful_fate/buried_alive_tab_ver_2.html ]
Riff 8
--------------------------------------------------------------
--------------------------------------------------------------
--------------------------------------------------------------
-------------------------------------------7------------------
---4-----4---4-4-----5-5-------5----4---4--5--7--3--5--7--8---
-2-2-2-2-2-2-2-2-2-2-3-3-3-3-3-3--2-2-2-2-----5--1--3--5--6---

Riff 9
------------------------------------------------
------------------------------------------------
------------------------------------------------
--7--------------------------------pick scrape--
--5-------7-8-----8-7-5------5-7-8-pick scrape--
----------5-6-----6-5-3------3-5-6-pick scrape--

Riff 10                     
-------------------------------------------------------------
-------------------------------------------------------------
-------------------------------------------------------------
----------------------------4-6------------------------4--7--
-4---4---7-7---4---4---7-7--2-4---4---4---7-7---4---4--2--5--
-2-2-2---5-5---2-2-2---5-5--------2-2-2---5-5---2-2-2--------

-----------------------------
-----------------------------
-----------------------------
---------2-2---9-9-----------
---4-4---0-0---7-7-----------
---2-2-----------0---000000--

-------------------
-------------------
-------------------
-11-11--7-7---9-9--
-9--9---5-5---7-7--
-------------------


Chorus backround
----1--------
------3-5-3--
--2----------
-0-----------
-------------
-------------



Hopefully, someone might do a correct tab on this one... Mine has several errors...
And it´s not complete. If you have one, bass or guitar, mail it to me.... The chorus 
backround riff is something that I´m just guessing on.... I think it goes on after the Dm.
Just change it from Dm to Bbm and so on...
 
/metal_up_your_ass@2die4.com
Comments