Mercury Rev - The Dark Is Rising Chords & Tabs

 

The Dark Is Rising Chords & Tabs

Mercury Rev Chords & Tabs

Version: 1 Type: Tab 0 ratings
1 star 2 stars 3 stars 4 stars 5 stars
comments

The Dark Is Rising Tab

   
'The dark is rising' is the opening song on the majestic 'All is dream' album, and can be
played using the following..

intro/chorus

 Cmajor    Bbflat   Fmajor  then c again.

E|--0--------1--------1------------------------------------
B|--1--------3--------1--------------------------------------
G|--0--------3--------2-------------------------------------
D|--2--------3--------3---------------------------------------
A|--3--------1--------3--------------------------------------
E|--x--------X--------X--------------------------------------
(repeats)
[ Tab from: http://www.guitartabs.cc/tabs/m/mercury_rev/the_dark_is_rising_tab.html ]
Then all orchestral instruments fade out leaving only the piano for the verse.
The following is a tricky piece of tab for the piano,vocal and violin based around 
the simple piano chords c,g,f, (bridge chords f,c) You will notice that there is a 
difference in the size of the spaces between notes. A smaller space indicates there
is twice as many notes picked as when there is a bigger space. Have a listen to the
song first!


verse


E|--3-----3-----0-------0---------3-----3-----0-----0-----------1-----0-----------
B|------1-----1-----3-----------------0-----0----3----3-1-----1-----1----1--------
G|----0-----0---------0--------0----0-----0-----------------2-----2---------0-----
D|-------------------------0---------------------3--------3-----3-----3-----------
A|--3-----------------------------------------------------------------------3-----
E|------------------3-------------3-----------------------------------------------
(repeats)


bridge


E|--5---3---1---------------1-----0--------------
B|------------------1-----------1-----1--------1--
G|--------------2-------2-----2-----2---2---0-----
D|----------3---------------3-----3--------------
A|--3---3-----------------------------------3-----
E|-----------------------------------------------
(repeats)

dedicated to those who seen mercury rev at witnness 2002































Comments