Menticide - Control Chords & Tabs

 

Control Chords & Tabs

Menticide Chords & Tabs

Version: 1 Type: Tab 0 ratings
1 star 2 stars 3 stars 4 stars 5 stars
comments

Control Tab

Menticide-Control

Tune half step down and then tune to drop-D.

Intro/main riff/verse: Gtr1
[--------------------------------]
[--------------------------------]
[--------------------------------]
[-----8/7------8/7-----------8/7-]Reapeat
[-1-0-6/5--1-0-6/5-0-1-0-1-0-6/5-]
[-1-0------1-0-----0-1-0-1-0-----]
                  pm....

Chrous:
[-------------------------------------------------------------------------]
[-------------------------------------------------------------------------]
[-------------------------------------------------------------------------]                
[-------------------------------------------------------------------------]
[/12--/13--\5-/6-0-0h1-5-666-555-333-111-----/12-13--5-6--0-0h1--/5-6-----]
[/12--/13--\5-/6-0-0h1-5-666-555-333-111--0--/12-13--5-6--0-0h1--/5-6-----]
                      pm...................                         pm.
Outro:
[--------------------------------------]
[--------------------------------------]
[--------------------------------------]
[----------8/7--------------------2----]
[-1-0------6/5---5-6----3-5-1-3-1-0----]
[-1-0--0-0-----0-5-6--0-3-5-1-3-1-0-0-0]

Solo;

First solo; John Loftus
[ Tab from: http://www.guitartabs.cc/tabs/m/menticide/control_tab.html ]
[--------------------------------------------------------------14----15---14-----12^^^^^----------------------------------------- 
[--/15^-15^--15^----15^--15^---12h13p12h13p12h15p12h13p12h13p12---12----12---12--15^^^^^----0h12h13h15p13p12----12---------------
[------------------------------------------------------------------------------------------------------------14----14-12---------
[------------------------------------------------------------------------------------------------------------------------14^16'--
[--------------------------------------------------------------------------------------------------------------------------------
[--------------------------------------------------------------------------------------------------------------------------------

[-------------------------3h5t12-3h5t12-3h5t12-3h5t12-3h5t12-3h5t12-3h5t12-/15^------12^12^-----------------------------------------------------------------------------------------------12(4)----------------]
[---------------------3/5------------------------------------------------------------15^15^--14h15p12--12h14p12---------------------------------------------------------------------------12(4)----------------]
[----------------0-2--------------------------------------------------------------------------------------------h15-15h16p12-12h14p0------------------------------------------------------12(4)-----15(7)(29)--]
[--------0-2-3-5---------------------------------------------------------------------------------------------------------------------16----0-2-3-5-3-2-0-2-0----------------4^-7^-9^-14^-----------------------]
[--0-2-3--------------------------------------------------------------------------------------------------------------------------------------------------------3-2^-------------------------------------------]
[--------------------------------------------------------------------------------------------------------------------------------------------------------------------------------------------------------------]

2nd solo: Philip Cassidy
Comments