Mental Distortion - The Song Chords & Tabs

 

The Song Chords & Tabs

Mental Distortion Chords & Tabs

Version: 1 Type: Tab 0 ratings
1 star 2 stars 3 stars 4 stars 5 stars
comments

The Song Tab

   
Mental Distortion   The Song!.
 Tabbed by Richard    DeaditeBeast2000@aol.com.
  
b=bend
<=slide up
>=slide down
h=hammer on
p=pull off
x=harmonics
///=pick slide
~=ring note out
%= repeat 

Intro

Guitar 1
a--3--4-3--3x3x4-3-3--4-3--3--4~--
e--1--2-1--1x1x2-1-1--2-1--1--2~--

Verse 1
Guitar 1 & 2

a--xxxx4<3-xxxx-3~xxxx4-3-------   o /     4 times
e--xxxx2<1-xxxx-1~xxxx2-1-------    / o

Chorus
a-2-3-4--2-3-4--2-3-4--2-3-2-4-2-4-2-3-2-4-2-2-3~----
e-0-3-2--0-3-2--0-3-2--0-3-2-2-2-2-0-3-2-2-2-0-0~----
[ Tab from: http://www.guitartabs.cc/tabs/m/mental_distortion/the_song_tab.html ]
verse 1

Guitar verse 2
a-33333-------33335-------33333--  o /  4 times
e-11111x-x-x-x11113x-x-x-x11111--   / o 

Chorus 

Solo
e-11-13h14----------------11-13-14-13-14-13-14-13-11b
b----------11-13-14-13-11----------------------------
g----------------------------------------------------

Outro  Guitar 2
e------------------------
b----2-------------------
g---2---2-4-2h4----------
d--4---4-----------------
a-2----------------------
e------------------------ 
:: Ultimate Guitar Archive :: 
http://www.ultimate-guitar.com 



Comments