Menace - Young Ones Chords & Tabs

 

Young Ones Chords & Tabs

Menace Chords & Tabs

Version: 1 Type: Tab 0 ratings
1 star 2 stars 3 stars 4 stars 5 stars
comments

Young Ones Tab

http://www.vh1.com/artists/az/menace/artist.jhtml

Band:Menace
Song:Young Ones

tabbed by jam9383@yahoo.com

Intro

e---------------------------------------------------------------------|
B---------------------------------------------------------------------|
G---------------------------------------------------------------------|
D--11-11-11-11-11-11--------------------------------------------------|
A--11-11-11-11-11-11--------------------------------------------------|
E--9--9--9--9--9--9---------------------------------------------------|

Verse

e---------------------------------------------------------------------|
B---------------------------------------------------------------------|
G-----------11-11-11--------------------------------------------------|
D--11-11-11-11-11-11--x2-11-11-11-11-11-11-8-8-8-8-8-8----------------|
A--11-11-11--9--9--9-----11-11-11-11-11-11-8-8-8-8-8-8----------------|
E--9--9--9---------------9--9--9--9--9--9--6-6-6-6-6-6----------------|
[ Tab from: http://www.guitartabs.cc/tabs/m/menace/young_ones_tab.html ]
Chorus
e----------------------------------------------------------------------|
B----------------------------------------------------------------------|
G---------8------10----12---------------------12-12-12-12-----12-12-12-|
D-11------8------10----12---11-11-11-11-11-11-12-12-12-12-----12-12-12-|
A-11------6------8-----10---11-11-11-11-11-11-10-10-10-10-x2--10-10-10-|
E-9--------------------------9--9--9--9--9--9--------------------------|

e---------------------------------------------------------------------|
B---------------------------------------------------------------------|
G----------------6----------------------------------------------------|
D---4-----5------6----------------------------------------------------|
A---4-----5------4----------------------------------------------------|
E---2-----3-----------------------------------------------------------|

Solo

e---------------------------------------------------------------------|
B-----------------17---------------12-11--------11-11-------12b-------|
G--10--13-14-15-------15--12-15-12---------12---------12---------14---|
D---------------------------------------------------------------------|
A---------------------------------------------------------------------|
E---------------------------------------------------------------------|

e---------------------------------------------------------------------|
B-----12-12----11-----------------------------------------------------|
G--10-------10--------------------------------------------------------|
D---------------------------------------------------------------------|
A---------------------------------------------------------------------|
E---------------------------------------------------------------------|
Comments