Men Without Hats - Pop Goes The World Chords & Tabs

 

Pop Goes The World Chords & Tabs

Men Without Hats Chords & Tabs

Version: 2 Type: Tab 0 ratings
1 star 2 stars 3 stars 4 stars 5 stars
comments

Pop Goes The World Tab

All I have figured out so far is the chords but if someone already knows the picking could they e-mail it 
me.  bayckon@hotmail.com

Play around with this till it sounds right, the number of times you play the cords may not be exactly right.

      A little distortion (helps to have a peddle for this)
|----------------------------------------------------------------|
|----------------------------------------------------------------|
|--5-------------------------------------------------------------|
|--5-x14--5------------------------------------------------------|
|---------5-x14--8-----3-----------------------------------------|
|----------------8-x8--3-x8--------------------------------------|
[ Tab from: http://www.guitartabs.cc/tabs/m/men_without_hats/pop_goes_the_world_tab_ver_2.html ]
      A lot of distortion for this part
|----------------------------------------------------------------|
|----------------------------------------------------------------|
|--5-x-x-x-x-x-x-x-x-x-x-5---------------------------------------|
|--5-x-x-x-x-x-x-x-x-x-x---5---5-x-x-x-x-x-x-x-x-x-x-5-----------|
|--3-x-x-x-x-x-x-x-x-x-x-------5-x-x-x-x-x-x-x-x-x-x---5---------|
|------------------------------3-x-x-x-x-x-x-x-x-x-x-------------|

|----------------------------------------------------------------|
|----------------------------------------------------------------|
|-----------------------------5-x-x-x-x-x-x-x-x-x-5--------------|
|--8-x-x-x-8----3-x-x-x-3-----5-x-x-x-x-x-x-x-x-x----------------|
|--8-x-x-x---8--3-x-x-x---3---3-x-x-x-x-x-x-x-x-x----------------|
|--6-x-x-x------1-x-x-x------------------------------------------|


-Ike
Comments