Men At Work - Who Can It Be Now Chords & Tabs

 

Who Can It Be Now Chords & Tabs

Men At Work Chords & Tabs

Version: 1 Type: Bass Tab 0 ratings
1 star 2 stars 3 stars 4 stars 5 stars
comments

Who Can It Be Now Bass Tab

   
MEN AT WORK - "Who Can It Be Now?" - Bass Tab

Common Time(4/4)
Standard Tuning(EADG)

INTRO:
|---------|------------------|-----------------|-----------------|
|---------|*-.-.-.-.-.-.-.-.-|-.-.-.-.-.-.-.-.-|-.-.-.-.-.-.-.-.-|
|-r-e-s-t-|*-4-4-4-4-4-4-4-4-|-4-4-4-4-4-4-4-4-|-2-2-2-2-2-2-2-2-|
|---------|------------------|-----------------|-----------------|
  1 2 3 4    1 & 2 & 3 & 4 &   1 & 2 & 3 & 4 &   1 & 2 & 3 & 4 &
  ______             _____
 |1.                |2.
|------------------|---------|
|-.-.-.-.-.-.-.-.-*|---------|
|-2-2-2-2-2-2-2-2-*|-r-4-5-6-|
|------------------|---------|
  1 & 2 & 3 & 4 &    1 2 3 4

1ST VERSE:
|--.-.-.-.-.-.-.-.-|-----------------|-----------------|
|*-2-2-2-2-2-2-2-2-|-.-.-.-.-.-.-.-.-|-.-.-.-.-.-.-.-.-|
|*-----------------|-5-5-5-5-5-5-5-5-|-4-4-4-4-4-4-4-4-|
|------------------|-----------------|-----------------|
   1 & 2 & 3 & 4 &   1 & 2 & 3 & 4 &   1 & 2 & 3 & 4 &

|----------------|
|-.-.-.-.-.-.-.-*|
|-4-4-4-4-4-2-2-*| (x4)
|----------------|
  1 & 2 & 3 & 4 

CHORUS:
|------------------|-----------------|-----------------|
|*-.-.-.-.-.-.-.-.-|-.-.-.-.-.-.-.-.-|-.-.-.-.-.-.-.-.-|
|*-4-4-4-4-4-4-4-4-|-4-4-4-4-4-4-4-4-|-2-2-2-2-2-2-2-2-|
|------------------|-----------------|-----------------|
   1 & 2 & 3 & 4 &   1 & 2 & 3 & 4 &   1 & 2 & 3 & 4 &
  ___________        _____
 |1.                |2.
|------------------|---------|
|-.-.-.-.-.-.-.-.-*|---------|
|-2-2-2-2-2-2-2-2-*|-r-4-5-6-|
|------------------|---------|
  1 & 2 & 3 & 4 &    1 2 3 4

2ND VERSE:
|--.-.-.-.-.-.-.-.-|-----------------|-----------------|
|*-2-2-2-2-2-2-2-2-|-.-.-.-.-.-.-.-.-|-.-.-.-.-.-.-.-.-|
|*-----------------|-5-5-5-5-5-5-5-5-|-4-4-4-4-4-4-4-4-|
|------------------|-----------------|-----------------|
   1 & 2 & 3 & 4 &   1 & 2 & 3 & 4 &   1 & 2 & 3 & 4 &
                  
            (x3)  
|----------------|-.-.-.-.-.-.-.-.-|-----------------|
|-.-.-.-.-.-.-.-*|-2-2-2-2-2-2-2-2-|-.-.-.-.-.-.-.-.-|
|-4-4-4-4-4-2-2-*|-----------------|-5-5-5-5-5-5-5-5-|
|----------------|-----------------|-----------------|
  1 & 2 & 3 & 4    1 & 2 & 3 & 4 &   1 & 2 & 3 & 4 &

|-----------------|---------|
|-.-.-.-.-.-.-.-.-|---------|
|-4-4-4-4-4-4-4-4-|-r-e-s-t-|
|-----------------|---------|
  1 & 2 & 3 & 4 &   1 2 3 4
[ Tab from: http://www.guitartabs.cc/tabs/m/men_at_work/who_can_it_be_now_btab.html ]
INTERLUDE:
                                 (x3)
|------------------|------------------|-----------------|
|*-----------------|-.-.-.-.-.-.-.-.-*|-----------------|
|*-.-.-.-.-.-.-.-.-|-2-2-2-2-2-2-2-2-*|-----------------|
|--2-2-2-2-2-2-2-2-|------------------|-2-2-2-2-2-2-2-2-|
   1 & 2 & 3 & 4 &   1 & 2 & 3 & 4 &    1 & 2 & 3 & 4 &

|-----------|----------|
|-----------|----------|
|-2---4---5/|-/-/-/-/9-|
|-----------|----------|
  1 2 & 3 4   1 2 3 4 

SAX SOLO:
|--.-.-.-.-.-.-.-.-|-.-.-.-.-.-.-.-.-|-----------------|
|*-2-2-2-2-2-2-2-2-|-2-2-2-2-2-2-2-2-|-.-.-.-.-.-.-.-.-|
|*-----------------|-----------------|-5-5-5-5-5-5-5-5-|
|------------------|-----------------|-----------------|
   1 & 2 & 3 & 4 &   1 & 2 & 3 & 4 &   1 & 2 & 3 & 4 &

              (x3)
|------------------|-.-.-.-.-.-.-.-.-|-.-.-.-.-.-.-.-.-|
|-.-.-.-.-.-------*|-2-2-2-2-2-2-2-2-|-2-2-2-2-2-2-2-2-|
|-5-5-5-5-5-5-2-5-*|-----------------|-----------------|
|------------------|-----------------|-----------------|
  1 & 2 & 3 & 4 &    1 & 2 & 3 & 4 &   1 & 2 & 3 & 4 &

|-----------------|-------------|
|-.-.-.-.-.-.-.-.-|-.-.-.-.-----|
|-5-5-5-5-5-5-5-5-|-5-5-5-5-7-5-|
|-----------------|-------------|
  1 & 2 & 3 & 4 &   1 & 2 & 3 4

END:
|------------------|-----------------|-----------------|
|*-.-.-.-.-.-.-.-.-|-.-.-.-.-.-.-.-.-|-.-.-.-.-.-.-.-.-|
|*-2-2-2-2-2-2-2-2-|-2-2-2-2-2-2-2-2-|-0-0-0-0-0-0-0-0-|
|------------------|-----------------|-----------------|
   1 & 2 & 3 & 4 &   1 & 2 & 3 & 4 &   1 & 2 & 3 & 4 &

              (x2)
|------------------|-----------------|-----------------|
|-.-.-.-.-.-.-.-.-*|-.-.-.-.-.-.-.-.-|-.-.-.-.-.-.-.-.-|
|-0-0-0-0-0-0-0-0-*|-2-2-2-2-2-2-2-2-|-2-2-2-2-2-2-2-2-|
|------------------|-----------------|-----------------|
  1 & 2 & 3 & 4 &    1 & 2 & 3 & 4 &   1 & 2 & 3 & 4 &

|-------------|-----------|-----------------|-----------------|
|-.-.---------|-------.-.-|-.-.-.-.-.-.-.-.-|-.-.-.-.-.-.-.-.-|
|-0-0---0---0-|---0---0-0-|-2-2-2-2-2-2-2-2-|-2-2-2-2-2-2-2-2-|
|-------------|-----------|-----------------|-----------------|
  1 & 2 & 3 4   1 & 2 3 4   1 & 2 & 3 & 4 &   1 & 2 & 3 & 4 &

|-----------|---------|
|-----------|---------|
|-0---0---0-|---------|
|-----------|---------|
  1 2 & 3 4   1 2 3 4

By: Johari Taylor
E-mail: viking@powerup.com.au
Comments