Men At Work - Overkill Chords & Tabs

 

Overkill Chords & Tabs

Men At Work Chords & Tabs

Version: 1 Type: Bass Tab 0 ratings
1 star 2 stars 3 stars 4 stars 5 stars
comments

Overkill Bass Tab

   
Standard Tuning

4/4 time

Hold each of those for 8 counts
|---------|
|---------|
|---------|
|-9-7-9-7-|


Repeat the following until the song is over:

  1 & 2 & 3 & 4 & 
|-----------------|
|-------------6-7-|
|-7-7-7-7-7-9-----|
|-----------------|

  1 & 2 & 3 & 4 & 
|-----------------|
|-9-9-9-9-9-9-9-9-|
|-----------------|
|-----------------|

  1 & 2 & 3 & 4 & 
|-----------------|
|-----------------|
|-5-5-5-5-5-5-5-5-|
|-----------------|

  1 & 2 & 3 & 4 & 
|-----------------|
|-----------------|
|-----------------|
|-5-5-5-5-5-5-5-5-|

  1 & 2 & 3 & 4 & 
|-----------------|
|-----------------|
|-7-7-7-7-7-7-7-7-|
|-----------------|

  1 & 2 & 3 & 4 & 
|-----------------|
|-----------------|
|-6-6-6-6-6-6-6-6-|
|-----------------|
  
  1 & 2 & 3 & 4 & 
|-----------------|
|-----------------|
|-5-5-5-5-5-5-5-5-|
|-----------------|

  1 & 2 & 3 & 4 & 
|-----------------|
|-----------------|
|-4-4-4-4-4-4-4-4-|
|-----------------|

  1 & 2 & 3 & 4 & 
|-----------------|
|-------------6-7-|
|-7-7-7-7-7-9-----|
|-----------------|

  1 & 2 & 3 & 4 & 
|-----------------|
|-9-9-9-9-9-9-9-9-|
|-----------------|
|-----------------|

  1 & 2 & 3 & 4 & 
|-----------------|
|-----------------|
|-5-5-5-5-5-5-5-5-|
|-----------------|

  1 & 2 & 3 & 4 & 
|-----------------|
|-----------------|
|-----------------|
|-5-5-5-5-5-5-5-5-|

  1 & 2 & 3 & 4 & 
|-----------------|
|-----------------|
|-7-7-7-7-7-7-7-7-|
|-----------------|

  1 & 2 & 3 & 4 & 
|-----------------|
|-----------------|
|-6-6-6-6-6-6-6-6-|
|-----------------|
[ Tab from: http://www.guitartabs.cc/tabs/m/men_at_work/overkill_btab.html ]
  1 & 2 & 3 & 4 & 
|-----------------|
|-----------------|
|-5-5-5-5-5-5-5-5-|
|-----------------|

  1 & 2 & 3 & 4 & 
|-----------------|
|-----------------|
|-4-4-4-4-4-4-4-4-|
|-----------------|

  1 & 2 & 3 & 4 & 
|-----------------|
|-----------------|
|-4-4-4-4-4-4-4-4-|
|-----------------|

  1 & 2 & 3 & 4 & 
|-----------------|
|-----------------|
|-4-4-4-4-4-4-4-4-|
|-----------------|

  1 & 2 & 3 & 4 & 
|-----------------|
|-----------------|
|-2-2-2-2-2-2-2-2-|
|-----------------|

  1 & 2 & 3 & 4 & 
|-----------------|
|-----------------|
|-2-2-2-2-2-2-2-2-|
|-----------------|

  1 & 2 & 3 & 4 & 
|-----------------|
|-----------------|
|-4-4-4-4-4-4-4-4-|
|-----------------|

  1 & 2 & 3 & 4 & 
|-----------------|
|-----------------|
|-4-4-4-4-4-4-4-4-|
|-----------------|

  1 & 2 & 3 & 4 & 
|-----------------|
|-----------------|
|-2-2-2-2-2-2-2-2-|
|-----------------|

  1 & 2 & 3 & 4 & 
|-----------------|
|-----------------|
|-2-2-2-2-2-2-2-2-|
|-----------------|

  1 & 2 & 3 & 4 & 
|-----------------|
|-----------------|
|-----------------|
|-4-4-4-4-4-4-4-4-|

  1 & 2 & 3 & 4 & 
|-----------------|
|-----------------|
|-----------------|
|-4-4-4-4-4-4-4-4-|

  1 & 2 & 3 & 4 & 
|-----------------|
|-----------------|
|-----------------|
|-5-5-5-5-5-5-5-5-|

  1 & 2 & 3 & 4 & 
|-----------------|
|-----------------|
|-----------------|
|-5-5-5-5-5-5-5-5-|

  1 & 2 & 3 & 4 & 
|-----------------|
|-----------------|
|-----------------|
|-7-7-7-7-7-7-7-7-|

  1 & 2 & 3 & 4 & 
|-----------------|
|-----------------|
|-----------------|
|-7-7-7-7-7-7-7-7-|

Go back to the thing after the intro...


Bill D.

"The World's Best Bass Tabber"
Comments