Men At Work - Down Under Chords & Tabs

 

Down Under Chords & Tabs

Men At Work Chords & Tabs

Version: 1 Type: Tab

Down Under Tab

   
Down Under -- Men at Work

Tabbed by: Alex Ryan (alextryan@aol.com)


The Capitalized words start on the beat. Getting the words in time is 
the only real trick to this song.

There's a lot going on instrumentally in the song, but I like this
fingerpicking tab for the rhythmic feel it gives.  


    |       |       |       |          |       |        |       |
   Bm               A                  Bm               G       A
e|----------------------------------|----------------------------------|
B|----------3---------------2-------|----------3------------3-------2--|
G|----------4---------------2-------|----------4------------0-------2--|
D|------4-------4-------2-------2---|------4-------4--------0-------2--|
A|--2---------------0---------------|--2------------------------0------|
E|----------------------------------|-------------------3--------------|

       traveLing... Burned..Crombie


    |       |       |       |          |       |        |       |
[ Tab from: http://www.guitartabs.cc/tabs/m/men_at_work/down_under_tab.html ]
e|----------------------------------|----------------------------------|
B|----------3---------------2-------|----------3------------3-------2--|
G|----------4---------------2-------|----------4------------0-------2--|
D|------4-------4-------2-------2---|------4-------4--------0-------2--|
A|--2---------------0---------------|--2------------------------0------|
E|----------------------------------|-------------------3--------------|

       on a Hippie...   Head Full...   Zombie


    |       |       |       |          |       |       |       |

e|----------5---5-5-----5-------5---|------7-------7-------3-------5---|
B|----------7---7-7-----5-------5---|------7-------7-------3-------5---|
G|----------7---7-7-----6-------6---|------7-------7-------4-------6---|
D|----------7---7-7-----7-------7---|------9-------9-------5-------7---|
A|----------5---5-5-----7-------7---|------9-------9-------5-------7---|
E|--5---------------5-------5-------|--7-------7-------3-------5-------|

     do you Come    Land... Under...


    |       |       |       |          |       |       |       |

e|------5-------5-------5-------5---|------7-------7-------3-------5---|
B|------7-------7-------5-------5---|------7-------7-------3-------5---|
G|------7-------7-------6-------6---|------7-------7-------4-------6---|
D|------7-------7-------7-------7---|------9-------9-------5-------7---|
A|------5-------5-------7-------7---|------9-------9-------5-------7---|
E|--5-------5-------5-------5-------|--7-------7-------3-------5-------|

      where Women glow  and Men Plun-  Der