Memphis Minnie - Black Rat Swing Chords & Tabs

 

Black Rat Swing Chords & Tabs

Memphis Minnie Chords & Tabs

Version: 1 Type: Tab 1 rating
1 star 2 stars 3 stars 4 stars 5 stars
comments

Black Rat Swing Tab

Title: Black Rat Swing
Artist: Orginally Memphis Minnie (also performed by Cephas & Wiggins)
Tebbed by: Lee (Using Guitar Pro 4)

This is another classic delta style blues peice, like the other one I submitted,
its played alot faster, and also has a harmonica playing along with it, but nonetheless
its a decent peice to play, relatively easy once you get the nack. Its a standard 12 bar
blues using the E, A, and B7 chords, so Stick around those and it'll make playing alot
easier..


                         
E||--------------------||---0-------0-------------|--0----3--------------|
B||----------0----2----||-----------------2-------|------------0----2----|
G||--------------------||*------------------------|----------------------|
D||---------------2----||*-------2-----------2----|-------2---------2----|
A||--------------------||-------------------------|----------------------|
E||----------0---------||---0----------0----------|--0---------0---------|


                                                                         
--0-------0-------------|--3-------------------|--0-------0-------------|
----------------2-------|------------0----2----|----------------2-------|
------------------------|----------------------|------------------------|
-------2-----------2----|-------2---------2----|-------2-----------2----|
------------------------|----------------------|------------------------|
--0----------0----------|--0---------0---------|--0----------0----------|


                                                                          
--0----3-------0-------|--3-------0-------------|--0---------------------|
-----------------------|----------------3-------|----------0-------------|
-----------------------|------------------------|----------------1-------|
-------2----------2----|-------2-----------2----|-------2-----------2----|
-----------------------|------------------------|------------------------|
--0---------0----------|--0----------0----------|--0----------0----------|


                                                                         
-------5-------5-------|--3-------0-----3-------|-------5-------5-------|
-----------------------|------------------------|-----------------------|
-----------------------|------------------------|-----------------------|
-------2----------2----|-------2-----------2----|-------2----------2----|
--0--------------------|--0---------------------|--0--------------------|
------------0----------|-------------0----------|------------0----------|

[ Tab from: http://www.guitartabs.cc/tabs/m/memphis_minnie/black_rat_swing_tab.html ]
                                                                       
--3-------0-----0-------|-------0------0-------|--0----0----0----0----|
------------------------|-------0------0--0----|--0----0----0----0----|
------------------------|-------4---------4----|--4----4----2----1----|
-------2-----------2----|----------------------|----------------------|
--0---------------------|----------------------|----------------------|
-------------0----------|--0-------------------|----------------------|


                                                                        
-------0---------------|--0--------------0----|--3-------3-----3-------|
---------------0h-2----|-------0----2---------|------------------------|
-----------------------|----------------------|------------------------|
-------2----------2----|-------2---------2----|-------2-----------2----|
-----------------------|----------------------|------------------------|
--0---------0----------|--0---------0---------|--0----------0----------|


                                                                         
-------2---------------|--2-------------2-------|-------5---------------|
---------------0-------|----------0-------------|---------------2-------|
-----------------------|------------------------|-----------------------|
-------1----------1----|-------1-----------1----|-------2----------2----|
--2--------------------|--2---------------------|--0--------------------|
------------2----------|-------------2----------|------------0----------|


                                                                       
--3-------0-----0-------|-------0------0-------|--0----0----0----0----|
------------------------|-------0------0--0----|--0----0----0----0----|
------------------------|-------4---------4----|--4----4----2----1----|
-------2-----------2----|----------------------|----------------------|
--0---------------------|----------------------|----------------------|
-------------0----------|--0-------------------|----------------------|


                                                                        
-------2---------------|--2-------------2--------||--0----------------||
---------------0-------|----------0--------------||--0----------------||
-----------------------|------------------------*||--1----------------||
-------1----------1----|-------1-----------1----*||--2----------------||
--2--------------------|--2----------------------||--2----------------||
------------2----------|-------------2-----------||--0----------------||


Lryics

I got rats in my kitchen, I got rats in my bed.
In the mornin' I eat breakfast rats in my bread.
You're just one black rat.
Someday I'm gonna catch your trail.
Im gonna hide my shoe somewhere beneath your shirt-tail.

When you told me you loved me
You done told me a lie,
But still I love you girl until the day I die.
You're just one black rat
Sineday I'm gonna catch your trail,
Gonna hide my shoes
Somewhere beneath your shirt-tail.
Comments