Members - The Sound Of The Suburbs Chords & Tabs

 

The Sound Of The Suburbs Chords & Tabs

Members Chords & Tabs

Version: 1 Type: Tab 0 ratings
1 star 2 stars 3 stars 4 stars 5 stars
comments

The Sound Of The Suburbs Tab

   
THE MEMBERS "THE SOUND OF THE SUBURBS"
tabbed by Beewak (mooseheart.faith@ntlworld.com)

 [Intro]

|---------------------------------------------|
|----------------0--0-0-0-----3--3-3-3--0-----|
|----0--0-0-0--------------0---------------0--|
|--0-----------0------------------------------|
|---------------------------------------------|
|---------------------------------------------|
 
C                                                         G
Same old boring Sunday morning, old man's out washing the car
C                       
Mum's in the kitchen cooking Sunday dinner 
                                G
Her best meal, moaning while it lasts
    A        C               D
And Johnny's upstairs in his bedroom sitting in the dark
A            C                   D
Annoying the neighbours with his punk rock electric guitar

 
            G
This is the sound...
            B            A
This is the sound of the suburbs
            G
This is the sound...
            B            A       C  E  D
This is the sound of the suburbs
 
C                                                             G
Every lousy Monday morning Heathrow jets go crashing over our home
C                                                             G
Ten o'clock, Broadmoor siren driving me mad - won't leave me alone
A         C              D    
The woman next door just sits and stares outside
A          C                  D     
She hasn't come out once ever since her husband died

 
 [Chorus]


 [Bridge]

|-----------------------------------|
|-----0-0-------------0-0-----------|
|---------2-1-------------2-0-------|
|--------------2---------------0----|
|-----------------------------------|
|--0-------------0-3-------------3--|

[ Tab from: http://www.guitartabs.cc/tabs/m/members/the_sound_of_the_suburbs_tab.html ]
|-----------------------------------|
|-----0-0-------------0-0-----------|
|---------2-1-------------2-0-------|
|--------------2---------------0----|
|-----------------------------------|
|--0-------------0-3-------------3--|

                        B5                      C5               Powerslide
|--------------------|-----------------------------------------------------|
|-----0-0--1---------|-----------------------------------------------------|
|------------2-------|----------------------4-4----------------------/\----|
|---------------2----|--4-44-44-44-44-44-44-----5-55-55-55-55-55-55-/--\---|
|--3--------------0--|--2-22-22-22-22-22-22-----3-33-33-33-33-33-33/----\--|
|--------------------|-----------------------------------------------------|


   A#5  Bb5  B5   C5  Db5 D5   Eb5  E5   F5      F#5    G5  [slide down]
|--------------------------------------------------------------------------|
|--------------------------------------------------------------------------|
|--------------------------------------------------------------------------|
|--2-22-3-33-4-44-5-55-66-77---8-88-9-99-10-1010-11-11--12-\\--------------|
|--0-00-1-11-2-22-3-33-44-55---6-66-7-77--8--8-8--9--9--10--\\-------------|
|------------------------------------------------------------\\------------|

G                        B             G               D
Youth Club Group used to wanna be free - now they want anarchy!
G                        B                G                 D
They play too fast, they play out of tune - practice in the singer's bedroom
C                                          B                A
Drums quite good, the bass is too loud and I can't hear the words

 
 [Chorus]
 
 
 [Fill]

|--------------------|
|--------------------|
|o------------------o|
|o-----0-4-2--------o|
|---2----------2-0---|
|--------------------|

 
 [Additional lyrics from album version]

Saturday morning family shoppers crowding out the center of town
Young blokes sitting on the benches shouting at the young girls walking around
And Johnny stands there at his window looking at the night
I said, "Hey, what you listening to, there's nothing there?"
That's right!
Comments