Melvins - Your Blessened Chords & Tabs

 

Your Blessened Chords & Tabs

Melvins Chords & Tabs

Version: 1 Type: Tab 0 ratings
1 star 2 stars 3 stars 4 stars 5 stars
comments

Your Blessened Tab

   
Melvins - Your Blessened

:ben.nield@gmail.com:

intro
   1     2     3     4     1     2     3     4
e|-------------------------------------------------|
b|-------------------------------------------------|
g|-------------------------------------------------|
d|-------------------------------------------------|
a|-5-----------0-----5-----------------5-----5--5--|
d|-5-----------0-----5-----------------5-----5--5--|
               .
e|-------------------------------------------------|
b|-------------------------------------------------|
g|-------7-----------5-----------------------------|
d|-5--6--7-----------5-----------------------------|
a|-5--6--------5-----3-----------------------------|
d|-------------5-----------------------------------|

e|-------------------------------------------------|
b|-------------------------------------------------|
g|-------------------------------------------------|
d|-------------------------------------------------|
a|-5-----------0-----5-----------------5-----5--5--|
d|-5-----------0-----5-----------------5-----5--5--|
               .
e|-------------------------------------------------|
b|-------------------------5--7--5--7--5--7^-------|
g|-------7-----------5-----5--7--5--7--5--7^-------|
d|-5--6--7-----------5-----------------------------|
a|-5--6--------5-----3-----------------------------|
d|-------------5-----------------------------------|

e|-------------------------------------------------|
b|-------------------------------------------------|
g|-------------------------------------------------|
d|-------------------------------------------------|
a|-5-----------0-----5-----------------5-----5--5--|
d|-5-----------0-----5-----------------5-----5--5--|
               .
e|-------------------------|
b|-------------------------|
g|-------7-----------5-----|
d|-5--6--7-----------5-----|
a|-5--6--------5-----3-----|
d|-------------5-----------|

VERSE riff - play 3x

   1     2     3     4     1     2     3     4
e|-------------------------------------------------|
b|-------------------------------------------------|
g|-------------------7^----------------------------|
d|-------------------7^----------------------------|
a|-0-----0-----0-----5^----------0-----0-----0-----|
d|-0-----0-----0-----------------0-----0-----0-----|
   .     .     .                 .     .     .
e|--------------------------------------------------------|
b|----7~--------------------------------------------------|
g|-7--7~-------------------7b----r-----------------7^-----|
d|-7-----------------------7b----r-----------------7^-----|
a|-5-----------0--0--0--0--5b----r-----0--0--0--0--5^-----|
d|-------------0--0--0--0--------------0--0--0--0---------|
               .  .  .  .              .  .  .  .

 Then play this 2x:
   1     2     3     4     1     2     3     4     1     2     3
e|--------------------------------------------------------------------|
b|--------------------------------------------------------------------|
g|-------------------7------------------------------------------------|
d|-------------------7------------------------------------------------|
a|-0-----0-----0-----5------------------------------------------------|
d|-0-----0-----0------------------------------------------------------|
   .     .     .
e|-------------------------------------------------|
b|-------------------------------------------------|
g|-6-----------------7-----------------------------|
d|-6-----------------7-----------------------------|
a|-4-----------------5-----------------0-----0-----|
d|-------------------------------------0-----0-----|
                                       .     .

now play VERSE riff once.


bridge (palm-mute all)
e|-----------------------------------------------|
b|-----------------------------------------------|
g|-----------------------------------------------|
d|-----------------------------------------------|
a|-9--9--10--10--9--9--7--7--11--11--10--10------|
d|-9--9--10--10--9--9--7--7--11--11--10--10------|

e|---------------------------------------------------------------------------------|
b|---------------------------------------------------------------------------------|
g|---------------------------------------------------------------------------------|
d|---------------------------------------------------------------------------------|
a|-9--9--10--10--9--9--7--7--12--12--11--11--7--7--10--10--9--9--5--5--8--8--3--3--|
d|-9--9--10--10--9--9--7--7--12--12--11--11--7--7--10--10--9--9--5--5--8--8--3--3--|

pre-solo (play 3x)
   1     2     3     4     1     2     3     4     1     2
e|-------------------------------------------------------------|
b|-------------------------------------------------------------|
g|-5-----7-----5-----7^----------5-----7-----5-----7^----------|
d|-5-----7-----5-----7^----------5-----7-----5-----7^----------|
a|-3-----5-----3-----5^----------3-----5-----3-----5^----------|
d|-------------------------------------------------------------|

e|-------------------------------------------|
b|-------------------------------------------|
g|-------------------------------------------|
d|-------------5^----------------------5^----|
a|-3h-5--5--5--------5-----3h-5--5--5--------|
d|-------------------------------------------|

   1     2     3     4     1     2     3     4     1     2     3     4
e|----------------------------------------------------------------------------|
b|-------------6--------6^----------------------------------------------------|
g|-------5h-7--6--7--7--6^---ring---------------------------------------------|
d|-------5h-7-----7--7--------------------------------------------------------|
a|-3h-5-----------------------------------------------------------------------|
d|----------------------------------------------------------------------------|
[ Tab from: http://www.guitartabs.cc/tabs/m/melvins/your_blessened_tab.html ]
then
   1     2     3     4     1     2     3     4     1     2     3     4
e|-------------------------------------------------------------------------|
b|-------------------6^----------------------6-----6-----------------6^----|
g|-5-----7-----5-----6^----------7--7--7--7--6-----6-----7--7--7--7--6^----|
d|-5-----7-----5-----------------7--7--7--7--------------7--7--7--7--------|
a|-------------------------------------------------------------------------|
d|-------------------------------------------------------------------------|

e|-------------------------------------------------------------------------|
b|-------------------6^----------------------------6^----------------------|
g|-5-----7-----5-----6^----------5-----7-----5-----6^----------7--7--7--7--|
d|-5-----7-----5-----------------5-----7-----5-----------------7--7--7--7--|
a|-------------------------------------------------------------------------|
d|-------------------------------------------------------------------------|

e|-------------------------------|
b|-6-----6-----------------6^----|
g|-6-----6-----7--7--7--7--6^----|
d|-------------7--7--7--7--------|
a|-------------------------------|
d|-------------------------------|

e|-------------------------------------------------------------------------|
b|-(6^)--------------------------------------------------------------------|
g|-(6^)----let-------------------------------------------------------------|
d|---------ring------------------------------------------------------------|
a|-------------------------------------------------------------------------|
d|-------------------------------------------------------------------------|

e|-------------------------------------|
b|-------------------------------------|
g|-------------------------------------|
d|-------------------------------------|
a|-ring--------------------------------|
d|-------------------------------------|

solo
   1     2     3     4     1     2     3     4     1     2     3     4
e|-------------------------------------------------------------------------
b|-14h17p14h17p14h17p14h17p14h17p14h17p14h17p12~~~~~~~~~~~~~~~~~~~~~~~~~~~~
g|-------------------------------------------------------------------------|
d|-------------------------------------------------------------------------|
a|-------------------------------------------------------------------------|
d|-------------------------------------------------------------------------|

e|-------------------------------------------------------------------------|
b|(11)~~~~~~~~~~~~~~~~~~~~~~~~~~~~~~~~~~~~~~~~~~~~-------------------------|
g|-------------------------------------------------------------------------|
d|------------------------------------------------(0)----ring + feedback---|
a|-------------------------------------------------5-------until 5:20------|
d|-------------------------------------------------------------------------|

then
   1     2     3     4     1     2     3     4
e|--------------------------------------------------|
b|--------------------------------------------------|
g|-5-----------------5-----------5--5--5-----4------|
d|-5-----------------5-----------5--5--5-----4------|
a|-3-----------------3-----------3--3--3-----2------|
d|--------------------------------------------------|

e|--------------------------------------------------|
b|--------------------------------------------------|
g|-5-----------------5-----------4--4--5--5--8------|
d|-5-----------------5-----------4--4--5--5--8------|
a|-3-----------0--0--3-----------2--2--3--3--6------|
d|-------------0--0---------------------------------|
               .  .

e|--------------------------------------------------|
b|--------------------------------------------------|
g|-7-----------------7-----------7--7--7--7--5------|
d|-7-----------------7-----------7--7--7--7--5------|
a|-5-----------0--0--5-----------5--5--5--5--3------|
d|-------------0--0---------------------------------|
               .  .
                                             "Your
e|-------------------------------------------------|
b|-------------------------------------------------|
g|-7-----------------7-----------7-----7-----------|
d|-7-----------------7-----------7-----7-----------|
a|-5-----------0--0--5-----------5-----5-----------|
d|-------------0--0--------------------------------|
               .  .
   blessened..."
e|-------------------------------------------------|
b|-------------------------------------------------|
g|-7-----------------7-----------7--7--7-----7--7--|
d|-7-----------------7-----------7--7--7-----7--7--|
a|-5-----------5--5--5-----------5--5--5-----5--5--|
d|-------------0--0--------------------------------|

e|--------------------------------------------------|
b|--------------------------------------------------|
g|-7-5--5--5--5--5--5----------5------5-----5-------|
d|-7-5--5--5--5--5--5----------5------5-----5-------|
a|-5-3--3--3--3--3--3----------3------3-----3-------|
d|-------0--0--0--0--0------------------------------|
         .  .  .  .
e|-------------------------------------------------|
b|-------------------------------------------------|
g|-4-----------------4-----------4--4--4-----4--4--|
d|-4-----------------4-----------4--4--4-----4--4--|
a|-2-----------0--0--2-----------2--2--2-----2--2--|
d|-------------0--0--------------------------------|
               .  .
e|------------------------------------------|
b|------------------------------------------|
g|-4/5--5--5--5--5--------------------------|
d|-4/5--5--5--5--5--------------------------|
a|-2/3--3--3--3--3--3-----------0-----3-----|
d|------------------3-----------0-----3-----|
                                .
outro - play 2x
e|-------------------------------------------------|
b|-------------------------------------------------|
g|-------------------7^----------------------------|
d|-------------------7^----------------------------|
a|-0-----0-----0-----5^----------0-----0-----0-----|
d|-0-----0-----0-----------------0-----0-----0-----|
   .     .     .                 .     .     .
e|------------------------------------------------------|
b|------------------------------------------------------|
g|-7^----------------------7b---r-----------------7^----|
d|-7^----------------------7b---r-----------------7^----|
a|-5^----------0--0--0--0--5b---r-----0--0--0--0--5^----|
d|-------------0--0--0--0-------------0--0--0--0--------|
               .  .  .  .             .  .  .  .

end on this
e|-------------------|
b|-------------------|
g|-------------------|
d|-------------------|
a|-0-----0-----0-----|
d|-0-----0-----0-----|
   .     .     .
Comments