Melvins - Revulsion We Reach Chords & Tabs

 

Revulsion We Reach Chords & Tabs

Melvins Chords & Tabs

Version: 1 Type: Tab 0 ratings
1 star 2 stars 3 stars 4 stars 5 stars
comments

Revulsion We Reach Tab

   
-----------------------------------------------------------------------------
                    REVULSION/WE REACH - Melvins
-----------------------------------------------------------------------------

Tabbed by an17nin17
Email - c.norman83@ntlworld.com

Drop D Tuning - D, A, D, G, B, E 

Intro 

|------|------------------------------------------------------------------| 
|------|------------------------------------------------------------------| 
|------|------------------------------------------------------------------| 
|------|------------------------------------------------------------------| 
|------|-/12-11-0-0-11--11-11-11-11-11-10-x-x-x-x-x-x-x-x-x-x-x-x-x-x-x-x-| 
|-<12>-|-/12-11-0-0-11--11-11-11-11-11-10-x-x-x-x-x-x-x-x-x-x-x-x-x-x-x-x-| 
                PM... 

|-------------------------------------------------------------------------| 
|-------------------------------------------------------------------------| 
|-------------------------------------------------------------------------| 
|-------------------------------------------------------------------------| 
|-12-11-/14---13---12-11-10-x-x-x-x-x-x-x-x-x-x-x-x-x-x-x-x-/12-11-0-0-11-| 
|-12-11-/14---13---12-11-10-x-x-x-x-x-x-x-x-x-x-x-x-x-x-x-x-/12-11-0-0-11-| 
                                                                   PM. 

|-------------------------------------------------------------------------| 
|-------------------------------------------------------------------------| 
|-------------------------------------------------------------------------| 
|-------------------------------------------------------------------------| 
|-11-11-11-11-11-10-x-x-x-x-x-x-x-x-x-x-x-x-x-x-x-x-12-11-/14---13--12-11-| 
|-11-11-11-11-11-10-x-x-x-x-x-x-x-x-x-x-x-x-x-x-x-x-12-11-/14---13--12-11-| 

|-------------------------------------------------------------------------| 
|-------------------------------------------------------------------------| 
|-------------------------------------------------------------------------| 
|-------------------------------------------------------------------------| 
|-10-0-10-9-8-0--0-12-11-10-0-10-9-8-0-2-2-2-0-2-2-2-0-2-2-2-0-2-2-2-0-2^-| 
|-10-0-10-9-8-0--0-12-11-10-0-10-9-8-0-2-2-2-0-2-2-2-0-2-2-2-0-2-2-2-0-2^-| 

Verse 

|---------------------------------|------------------|
|---------------------------------|------------------|
|---------------------------------|------------------|
|---------------------------------|------------------|
|-x-x-x-2-2-2-2--2-2-2-2--2-2-2-2-|-2^~~-2-2-2-2-2-2-|
|-x-x-x-2-2-2-2--2-2-2-2--2-2-2-2-|-2^~~-2-2-2-2-2-2-|
| PM.......                       | PM....... 
| Play x 4                        | Play x 2 
[ Tab from: http://www.guitartabs.cc/tabs/m/melvins/revulsion_we_reach_tab.html ]
|----------------------------|------------------|-----------|
|----------------------------|------------------|-----------|
|----------------------------|------------------|-----------|
|----------------------------|------------------|-----------|
|-3-2-1~~-0-2^~~-2-2-2-2-2-2-|-2^~~-2-2-2-2-2-2-|-3-2-1~~-0-|
|-3-2-1~~-0-2^~~-2-2-2-2-2-2-|-2^~~-2-2-2-2-2-2-|-3-2-1~~-0-|
                             |      PM......... |
                             | Play x 2         |

|----------------------------------------------------| 
|----------------------------------------------------| 
|----------------------------------------------------| 
|----------------------------------------------------| 
|-2^~~-2-2-2-2-2-2-2^~~-2-2-2-2-2-2-2^~~-2-2-2-2-2-2-| 
|-2^~~-2-2-2-2-2-2-2^~~-2-2-2-2-2-2-2^~~-2-2-2-2-2-2-| 
       PM.......        PM.......        PM....... 
  Play x 6 

|--------------------------------------| 
|--------------------------------------| 
|--------------------------------------| 
|--------------------------------------| 
|-3-2-1~~-0-2^~~-2-2-2-2-2-2-3-2-1~~-0-| 
|-3-2-1~~-0-2^~~-2-2-2-2-2-2-3-2-1~~-0-| 
                 PM....... 

Chorus 
                                                                 1| 
|-------------------------|---------------------------------------|
|-------------------------|---------------------------------------|
|-------------------------|---------------------------------------|
|-------------------------|---------------------------------------|
|-2~~-2~~-2~~---2~~-0-2~~-|-2~~-2~~-0-1~~-1~~-1~~-1~~-1^-1^-1^-1^-|
|-2~~-2~~-2~~---2~~-0-2~~-|-2~~-2~~-0-1~~-1~~-1~~-1~~-1^-1^-1^-1^-|

                                                     2|
|-----------------------------------------------------|
|-----------------------------------------------------|
|-----------------------------------------------------|
|-----------------------------------------------------|
|-0-2-0-2-0-2-0-3-/6--5-2~~-2~~--2~~-2~~-2~~-3~~^-2~~-|
|-0-2-0-2-0-2-0-3-/6--5-2~~-2~~--2~~-2~~-2~~-3~~^-2~~-|

                                            3| 
|--------------------------------------------|
|--------------------------------------------|
|--------------------------------------------|
|--------------------------------------------|
|-0-2-0-2-0-2-0-3-/6---5---0---0-0-6-5-3~~-2-|
|-0-2-0-2-0-2-0-3-/6---5---0---0-0-6-5-3~~-2-|


Middle 8 

|------------------------------------------------------------------------| 
|------------------------------------------------------------------------| 
|------------------------------------------------------------------------| 
|------------------------------------------------------------------------| 
|-x-x-x-x-x-x-x-x-x-x-x-x-x-x-x-x-2^~~---2-2-2-2^~~-2-x-x-x-x-2^~~-x-x-x-| 
|-x-x-x-x-x-x-x-x-x-x-x-x-x-x-x-x-2^~~---2-2-2-2^~~-2-x-x-x-x-2^~~-x-x-x-| 

|---------------------------------|---------------|
|---------------------------------|---------------|
|---------------------------------|---------------|
|---------------------------------|---------------|
|-3---2---1~~-0---2---^-2~~-2-2-2-|-3---2---1~~-0-|
|-3---2---1~~-0---2---^-2~~-2-2-2-|-3---2---1~~-0-|
                                  | Play x 4
Outro

|---------------------------|
|---------------------------|
|---------------------------|
|-----------------0~~-<4>~~-|
|-x-x-x-x-x-x-x-x-0~~-------|
|-x-x-x-x-x-x-x-x-0~~-------|

No Guitar throughout "We Reach"

Contact me if you want any tabs or have any comments for this one.
Comments