Melvins - Night Goat Chords & Tabs

 

Night Goat Chords & Tabs

Melvins Chords & Tabs

Version: 1 Type: Tab 0 ratings
1 star 2 stars 3 stars 4 stars 5 stars
comments

Night Goat Tab

   
Artist - Melvins
Song - Night Goat
Album - Houdini
Tabbed By an17nin17

Tuning - Low To High - D, A, D, G, B, E

A very simple song.

Intro/Verse

|----------------------------|
|----------------------------|
|----------------------------|
|-12-12-12-12-12-12-12-12-12-|
|-12-12-12-12-12-12-12-12-12-|
|-12-12-12-12-12-12-12-12-12-|
  PM........................
Ad Lib throughout

Pre-Chorus

|----------------------------|
|----------------------------|
|----------------------------|
|-13-13-13-13-13-13-13-13-13-|
|-13-13-13-13-13-13-13-13-13-|
|-13-13-13-13-13-13-13-13-13-|
  PM........................
Like the Intro/Verse, ad lib

Chorus
[ Tab from: http://www.guitartabs.cc/tabs/m/melvins/night_goat_tab.html ]
|---------------------|-----------------------------------|
|---------------------|-----------------------------------|
|---------------------|------------------12^^^^^^^^^^^^^^-|
|-0-1-3-3-3-3-0---0-5-|-12^(13)-12~~-x-x------------------|
|-0-1-3-3-3-3-0---0-5-|-----------------------------------|
|-0-1-3-3-3-3-0---0-5-|-----------------------------------|
  The Second chorus is the same, this part^ is the same but pulled off
  Differantly

Outro

|---------------------|-----------------|
|---------------------|-----------------|
|---------------------|-----------------|
|-0-1-3-3-3-3-0---0-5-|-0-1-3-3-3-3-0~~-|
|-0-1-3-3-3-3-0---0-5-|-0-1-3-3-3-3-0~~-|
|-0-1-3-3-3-3-0---0-5-|-0-1-3-3-3-3-0~~-|
  Play x 4            |

And Thats that.  This was tabbed else where but it missed out some of
the riffs.

I recently got the Helmet album "Meantime" and I think it's F*****g brilliant,
so expect an album tab of it soon! If you have any comments on any of the tabs
I've done contact me at c.norman@ntlworld.com
Comments