Melvins - Mary Lady Bobbykins Chords & Tabs

 

Mary Lady Bobbykins Chords & Tabs

Melvins Chords & Tabs

Version: 1 Type: Tab 0 ratings
1 star 2 stars 3 stars 4 stars 5 stars
comments

Mary Lady Bobbykins Tab

   
            The Melvins 
	  Mary Lady Bobbykins
              ~o0~0o~

   tabbed by ben.nield@gmail.com

x = finger mute
/ = slide up
\ = slide down
h = hammer on
p = pull off
~ = vibrato


-*1st Part*-

  Riff 1 
E|---------------------------------|    
B|---------------------------------|
G|---------------------------------|
D|-----4-----4---------4-----4-----|
A|-3-------3-----3p2-2---2-2---0-0-| 8x
E|---------------------------------|

  Fill
E|---------------------------------|    
B|---------------------------------|
G|-4-3-----3-----3-----3-----3-----|
D|-2-2---2-----2-----2-----2---2---|
A|-----------------------2---------|
E|---------------------------------|

E|-----------------|    
B|-----------------|
G|-----------------|
D|-7-----6-----4---|
A|-5-----5-----2---|
E|-----------------|

Back to Riff 1 4x and Fill
Then repeat Riff 1 and Fill

then
E|-----------------|    
B|-----------------|
G|-----------------|
D|-----------------| 
A|-7-7-7-7-7-7-7-7-| x4
E|-0-0-0-0-0-0-0-0-|


-*2nd Part*-

  Guitar 1:
              "Albion"
E|---------------------------------|    
B|---------------------------------|
G|---------------------------------|
D|-6h7-----------------------------|
A|-------7~~~----------------------| 4x
E|---------------------------------|
[ Tab from: http://www.guitartabs.cc/tabs/m/melvins/mary_lady_bobbykins_tab.html ]
  Guitar 2:
E|---------------------------------|    
B|---------------------------------|
G|---------------------------------|
D|-9-x-x-9-x-x-9-x-x-9-x-x-9-x-9-x-|
A|-7-x-x-7-x-x-7-x-x-7-x-x-7-x-7-x-| 4x
E|---------------------------------|

 "Under- neath the   Magick"
E|---------------------------------|    
B|---------------------------------|
G|---------------------------------|
D|---------------------------------|
A|-2---x-2---x-2---x-2---x-2---2---| 
E|-0---x-0---x-0---x-0---x-0---0---|
  |--------Palm Mute all----------|  
  
  "Under all  the  Law"
E|---------------------------------|    
B|---------------------------------|
G|---------------------------------|
D|---------------------------------|
A|-2-------------x-2---------------| 
E|-0-------------x-0---------------|
 
  "What  is  this  thing I see-ee?"
E|---------------------------------|    
B|---------------------------------|
G|---------------------------------|
D|-9-x-x-7-x-x-6-x-x-7-x-x-6-x-4-x-|
A|-7-x-x-5-x-x-4-x-x-5-x-x-4-x-2-x-| 
E|---------------------------------|
   
  "Or- dina- ry,   or- dina- ry"
   1   2   3   4   1   2   3   4     
E|---------------------------------|    
B|---------------------------------|
G|---------------------------------|
D|-9-------------x-9---------------|
A|-7---x-9---9---x-7---x-9---9-----| 
E|-----x-7---7---------x-7---7-----|

Repeat sequence 3x

  End on this
E|---------------------------------|    
B|---------------------------------|
G|---------------------------------|
D|-7----let------------------------|
A|-5--------ring-------------------| 
E|---------------------------------|
Comments