Melvins - Magic Pig Detective Chords & Tabs

 

Magic Pig Detective Chords & Tabs

Melvins Chords & Tabs

Version: 1 Type: Tab 0 ratings
1 star 2 stars 3 stars 4 stars 5 stars
comments

Magic Pig Detective Tab

Magic Pig Detective by The Melvins
    (updated 15 December 2005)
     : bennield@hotmail.com :

     (3m:33s)
      1   +   2   +   3   +   4   +     1   +   2   +   3   +   4   + 
   e|---------------------------------|---------------------------------
   b|---------------------------------|---------------------------------
   g|---------------------------------|---------------------------------
   d|-7-------------------------------|---------------------------------
   a|-5-------------5-------4---------|---------------------------------
   e|---------------3-------2---------|---------------------------------

     Riff 1 (4x):
      1   +   2   +   3   +   4   +     1   +   2   +   3   +   4   + 
   e|---------------------------------|---------------------------------
   b|---------------------------------|---------------------------------
   g|---------------------------------|---------------------------------
   d|---------------------------------|---------------------------------
   a|-4---4---4---4---4---4---4---4---|-4-/-5---5---7-------7-----------
   e|-2---2---2---2---2---2---2---2---|-2-/-3---3---5-------5---3-p-0---
      *   *       *   *   *       *             *
   e|---------------------------------|---------------------------------|
   b|---------------------------------|---------------------------------|
   g|---------------------------------|---------------------------------|
   d|---------------------------------|---------------------------------|
   a|-4---4---4---4---4---4---4---4---|-4-/-5---5---2-------------------|
   e|-2---2---2---2---2---2---2---2---|-2-/-3---3---0-------0---3-p-0---|
      *   *       *   *   *       *             *

     Fill: - Palm-mute lightly 
      1   +   2   +   3   +   4   +     1   +   2   +   3   +   4   +    
   e|---------------------------------|---------------------------------
   b|---------------------------------|---------------------------------
   g|---------------------------------|---------------------------------
   d|---------3-----------3-----------|-3-------------------------------
   a|-2---2-------2---2-------2---2---|-----2---2-----------------------
   e|---------------------------------|-------------3-------3---0---2---
   
   e|---------------------------------|---------------------------------
   b|---------------------------------|---------------------------------
   g|---------------------------------|---------------------------------
   d|-----3---2-------0---------------|-0-------------------------------
   a|-------------0-------0---2---0---|-----0---2---0---3-------2-------
   e|---------------------------------|---------------------------------
   
   e|---------------------------------|---------------------------------
   b|---------------------------------|---------------------------------
   g|---------------------------------|---------------------------------
   d|---------3-----------3-----------|-3-------------------------------
   a|-----2-------2---2-------2---2---|-----2---2-----------------------
   e|---------------------------------|-------------3-------3---0---2---
      
   e|---------------------------------|-----------------------------|
   b|---------------------------------|-----------------------------|
   g|---------------------------------|-----------------------------|
   d|-0---1---2---0---3---0---2---0---|-1---0---2---0---3---2---0---|
   a|---------------------------------|-----------------------------|
   e|---------------------------------|-----------------------------|

     Riff 2:
      1   +   2   +   3   +   4   +     1   +   2   +   3   +   4   + 
   e|---------------------------------|---------------------------------
   b|---------------------------------|---------------------------------
   g|---------------------------------|---------------------------------
   d|-------------5-------------------|---------------------------------
   a|-4---4---4---3---ring------------|---------------------------------
   e|-2---2---2-----------------------|---------------------0---3-p-0---
          *   *                                         
   e|---------------------------------|---------------------------------
   b|---------------------------------|---------------------------------
   g|---------------------------------|---------------------------------
   d|---------------------------------|---------------------------------
   a|-4---4---4---4---4---4---4---4---|-4---4---4---4---4---------------
   e|-2---2---2---2---2---2---2---2---|-2---2---2---2---2---0---3-p-0---
          *   *       *   *       *     *       *   *              
   e|---------------------------------|---------------------------------
   b|---------------------------------|---------------------------------
   g|---------------------------------|---------------------------------
   d|---------4-/-5-------------------|---------------------------------
   a|-4---4---2-/-3---ring------------|---------------------------------
   e|-2---2---------------------------|---------------------0---3-p-0---

   e|---------------------------------|---------------------------------
   b|---------------------------------|---------------------------------
   g|---------------------------------|---------------------------------
   d|---------------------------------|---------------------------------
   a|-4-4-4-4-4-4-4-4-4-4-4-4-4-4-4-4-|-4-4-4-4-4-4-4-4-4-4-4-4---------
   e|-2-2-2-2-2-2-2-2-2-2-2-2-2-2-2-2-|-2-2-2-2-2-2-2-2-2-2-2-2-3-p-0---
        * * * * *   * * * * *   * * *   * *   * * * * *   * * *
   e|---------------------------------|---------------------------------|
   b|---------------------------------|---------------------------------|
   g|---------------------------------|---------------------------------|
   d|---------4-/-5-------------------|-5---5---5---5---5---5---5---5---|
   a|-6-\-4-/-2-/-3---ring------------|-3---3---3---3---3---3---3---3---|
   e|-4-\-2-/-------------------------|---------------------------------|
[ Tab from: http://www.guitartabs.cc/tabs/m/melvins/magic_pig_detective_tab.html ]
     Riff 3a (3x):
      1   +   2   +   3   +   4   +     1   +   2   +   3   +   4   + 
   e|---------------------------------|---------------------------------
   b|---------------------------------|---------------------------------
   g|---------------------------------|---------------------------------
   d|---------------------------------|---------------------------------
   a|-6-\-4---4---4---4---6---6---6---|-6---6---6---7---7---7---4---4---
   e|-4-\-2---2---2---2---4---4---4---|-4---4---4---5---5---5---2---2---
              *   *   *       *   *         *   *       *   *       *    
   e|---------------------------------|---------------------------------|
   b|---------------------------------|---------------------------------|
   g|---------------------------------|---------------------------------|
   d|---------------------------------|---------------------------------|
   a|-6-\-4---4---4---4---6---6---6---|-4---4---4---5---5---5---0---0---|
   e|-4-\-2---2---2---2---4---4---4---|-2---2---2---3---3---3---2---2---|
              *   *   *       *   *         *   *       *   *       *    
     Riff 3b (4x):
   e|---------------------------------|---------------------------------
   b|---------------------------------|---------------------------------
   g|---------------------------------|---------------------------------
   d|---------------------------------|---------------------------------
   a|-6-\-4---4---4---4---6---6---6---|-6---6---6---7---7---7---4---4---
   e|-4-\-2---2---2---2---4---4---4---|-4---4---4---5---5---5---2---2---
              *   *   *   *   *   *     *   *   *   *   *   *   *   *    
   e|---------------------------------|---------------------------------|
   b|---------------------------------|---------------------------------|
   g|---------------------------------|---------------------------------|
   d|---------------------------------|---------------------------------|
   a|-6-\-4---4---4---4---6---6---6---|-4---4---4---5---5---5---0---0---|
   e|-4-\-2---2---2---2---4---4---4---|-2---2---2---3---3---3---2---2---|
              *   *   *   *   *   *     *   *   *   *   *   *   *   *    

     Solo goes something like this:
      1   +   2   +   3   +   4   +     1   +   2   +   3   +   4   + 
   e|---------------------------------|---------------------------------
   b|---------------------------------|---------------------------------
   g|/11------11--11--11--11--11--11--|-11-11-11-11b(12)----------------
   d|---------------------------------|---------------------------------
   a|---------------------------------|---------------------------------
   e|---------------------------------|---------------------------------

   e|---------------------------------|---------------------------------
   b|---------------------------------|---------------------------------
   g|-9---11--------------------------|-----------------------------7---
   d|---------9--11-11-9h7------------|---------------------------------
   a|----------------------9h7-9h7-9--|-9~~~~~~~~~~~~~~~~~~~~~~~~-------
   e|---------------------------------|---------------------------------

   e|---------------------------------|---------------------------------
   b|---------------------------------|---------------------------------
   g|-6-------------------7-------7---|---------------------------------
   d|-----7---6---7---6-------6-------|-6---7-------6-------6---5-~~~~~-
   a|---------------------------------|---------6-------6---------------
   e|---------------------------------|---------------------------------

   e|---------------------------------|---------------------------------
   b|---------------------------------|---------------------------------
   g|---------------------------------|---------------------------------
   d|-4-------------------------------|---------------------------------
   a|-----4---4---4---5b---6---5-~~~--|-----------------------------5-\-
   e|---------------------------------|-----------------------------3-\-
 
     Outro:
      1   +   2   +   3   +   4   +     1   +   2   +   3   +   4   + 
   e|---------------------------------|---------------------------------
   b|---------------------------------|---------------------------------
   g|---------------------------------|---------------------------------
   d|---------------------------------|--------------------------------- 
   a|-4---4---4---4-/-5---5---5---4---|-----4---------------3---2---5-\-   
   e|-2---2---2---2-/-3---3---3---2---|-----2---0---2---3-----------3-\-      
          *   *           *   *
     Play that once again

   e|---------------------------------|---------------------------------
   b|---------------------------------|---------------------------------
   g|---------------------------------|---------------------------------
   d|---------------------------------|---------------------------------
   a|-4---4---4---4-/-5---5---5---4---|-----4---------------3-----------
   e|-2---2---2---2-/-3---3---3---2---|-----2---0---2---3-------0---2---
          *   *           *   *
   e|---------------------------------|-------------
   b|---------------------------------|-------------
   g|---------------------------------|-------------
   d|---------------------------------|-------------
   a|-----3---------------------------|-------------
   e|-3-------0---2---3---2---3---2---|-3---2---3---
  
   e|---------------------------------|---------------------------------
   b|---------------------------------|---------------------------------
   g|---------------------------------|---------------------------------
   d|---------------------------------|---------------------------------
   a|-2-------------------------------|---------------------------------
   e|-0---ring------------------------|---------------------------------

   e|---------------------------------|---------------------------------
   b|---------------------------------|---------------------------------
   g|---------------------------------|---------------------------------
   d|---------------------------------|---------------------------------
   a|-----------------4---x---x---x---|-4---4---------------------------
   e|-3---2---0---2---2---x---x---x---|-2---2---------------------------
Comments