Melvins - Lone Rose Holding Now Chords & Tabs

 

Lone Rose Holding Now Chords & Tabs

Melvins Chords & Tabs

Version: 1 Type: Tab 0 ratings
1 star 2 stars 3 stars 4 stars 5 stars
comments

Lone Rose Holding Now Tab

   
Melvins - Lone Rose Holding Now

"-tabbed by Bottari Jonathan-" evilken87@hotmail.com 
	 
	  4/4		    
b = bend 	        
x = mute                                          
h = hammer on	
p = pull off


intro

e|----------------|----------------|----------------|----------------|
b|----------------|----------------|----------------|----------------|
g|----------------|----------------|----------------|----------------|
d|------------5---|----------------|------------5---|----------------|
a|7---------7---7-|6---------6---6-|7---------7---7-|6-7-6-----6---6-|
E|----------------|------------7---|----------------|------------7---|


verso
[ Tab from: http://www.guitartabs.cc/tabs/m/melvins/lone_rose_holding_now_tab.html ]
  /---------------x3--------------\
e|----------------|----------------|----------------|----------------|
b|----------------|----------------|----------------|----------------|
g|----------------|----------------|----------------|----------------|
d|----------------|----------------|----------------|----------------|
a|7---------------|----------------|----------------|----------------|
E|----------------|----------------|7---------------|----------------|
                                   
                                          
chorus

e|----------------|----------------|
b|----------------|----------------|
g|----------------|----------------|
d|--------------7p|6---------------|
a|6-6-6-6h7p6-----|----7p6---------|
E|----------------|----------7p6---|


bridge

e|----------------|----------------|
b|----------------|----------------|
g|----------------|----------------|
d|----------------|----------------|
a|7p6---7p6---7p6-|--7p6---7p6-----|
E|----------------|----------------|

outro

e|----------------|----------------|----------------|----------------|
b|----------------|----------------|----------------|----------------|
g|----------------|----------------|----------------|----------------|
d|------9-----7---|--6-----7---6---|------8-----6---|--5-------------|
a|7---------------|----------------|6---------------|----------------|
E|----------------|----------------|----------------|----------------|
 

e|----------------|----------------|
b|----------------|----------------|
g|----------------|----------------|
d|----------------|----------------|
a|----------------|----------------|
E|8-8-8-xxx-8-7-8-|9-9-9-----------|


intro	x2
verso	x1
chorus	x2
intro	x2
verso	x1
chorus	x4
bridge	x1
outro	x3
Comments