Melvins - Lividity Chords & Tabs

 

Lividity Chords & Tabs

Melvins Chords & Tabs

Version: 2 Type: Bass Tab 0 ratings
1 star 2 stars 3 stars 4 stars 5 stars
comments

Lividity Bass Tab

"Lividity" by The Melvins
Instrument: bass
ben.nield@gmail.com

[ Tab from: http://www.guitartabs.cc/tabs/m/melvins/lividity_btab_ver_2.html ]
 B---------------------------------------------------------------------|
 G---------------------------------------------------------------------|
 A-----------------5---------------3---------------0---3---0-----------|
 D-0-----------------------------------------------------------3-------|

 B-------------------------------------------------------------------|
 G-------------------------------------------------------------------|
 A-----------------5---------------2-------3-------------------------|
 D-0-----------------------------------------------3-----5^----3-----|


repeat ad finitum.
Comments