Melvins - Its Shoved Chords & Tabs

 

Its Shoved Chords & Tabs

Melvins Chords & Tabs

Version: 1 Type: Bass Tab 0 ratings
1 star 2 stars 3 stars 4 stars 5 stars
comments

Its Shoved Bass Tab

Artist: Melvins
Album: Bullhead
Song: It's Shoved

Bass ta by johnny z


(0:00 - 1:45)
Keep repeating
g-----------------------------------------------------|
d-----------------------------------------------------|
a-------2--4-4-----------------0-0--------------------|
e--0-0----------3-3--0--3-3-3-------0-0-1-------------|

(1:45 - 2:00) This is a slight variation of the first part
Keep repeating
g-----------------------------------------------------|
d-----------------------------------------------------|
a-------2--4-4----------0-0----0----------------------|
e--0-0----------3-3--0-------3---3--0--3--0-----------|
[ Tab from: http://www.guitartabs.cc/tabs/m/melvins/its_shoved_btab.html ]
(2:00 - 2:05)
Play this once
g-----------------------------------------------------|
d-----------------------------------------------------|
a--------------------------0-0------------------------|
e--0--0---0-0-3-3-3-3-3-3-----------------------------|

(2:05 - 2:15)
Keep repeating
g-----------------------------------------------------|
d-----------------------------------------------------|
a-----------------------------------------------------|
e-0-0-0-0-0-0-0-0-0-0-0-0-0-0-0-0-0-0-0-0-0-0-0-0-----|

(2:15 - 2:25)
Keep repeating
g-----------------------------------------------------|
d------2-------2--0---0---0---0---0---0---------------|
a-------------------2---4---4---4---4---4-------------|
e--0-0----0-0-----------------------------------------|

(2:25 - 2:35)
Play this once
g-----------------------------------------------------|
d-----------------------------------------------------|
a-1-0-1-0-----2-3-------------------------------------|
e----------2-3-----2-3-0------------------------------|
Comments