Melvins - If I Had An Exorcism Chords & Tabs

 

If I Had An Exorcism Chords & Tabs

Melvins Chords & Tabs

Version: 1 Type: Tab 0 ratings
1 star 2 stars 3 stars 4 stars 5 stars
comments

If I Had An Exorcism Tab

The Melvins
 "If I Had An Exorcism"

Tabbed by ben.nield@gmail.com

Intro [x = Finger mute.]
   1   2   3   4   1   2   3   4     1   2   3   4   1   2   3   4
 e---------------------------------|---------------------------------|
 b---------------------------------|---------------------------------|
 g---------------------------------|---------------------------------|
 d-x-x-x-x---------x-x-------------|-x-x-------------x-x-----x-x-----|
 a-x-x-x-x---------x-x-------------|-x-x-------------x-x-----x-x-----|
 e-x-x-x-x---------x-x-------------|-x-x-------------x-x-----x-x-----|

   1   2   3   4   1   2   3   4     1   2   3   4   1   2   3   4
 e---------------------------------|---------------------------------|
 b---------------------------------|---------------------------------|
 g---------------------------------|---------------------------------|
 d-----------------x-x-x-x---------|-----------------x-x-x-----------|
 a-----------------x-x-x-x---------|-----------------x-x-x-----------|
 e-----------------x-x-x-x---------|-----------------x-x-x-----------|
                                                            "Like some-
body took a coathanger"
   1   2   3   4   1   2   3   4     1   2   3   4   1   2   3   4
 e---------------------------------|---------------------------------|
 b---------------------------------|---------------------------------|
 g---------------------------------|---------------------------------|
 d-----------------x-x-x-----------|-----------------x-x-x-----------|
 a-----------------x-x-x-----------|-----------------x-x-x-----------|
 e-----------------x-x-x-----------|-----------------x-x-x-----------|

   1   2   3   4   1   2   3   4     1   2
 e---------------------------------|---------|
 b---------------------------------|---------|
 g---------------------------------|---------|
 d-----------------x-x-x-----------|---------|
 a-----------------x-x-x-----------|---------|
 e-----------------x-x-x-----------|---------|

   1   2   3   4   1   2   3   4     1   2   3   4   1   2   3   4
 e---------------------------------|---------------------------------|
 b---------------------------------|---------------------------------|
 g---------------------------------|---------------------------------|
 d---------------------------------|---------------------------------|
 a-3-3-3---2-----------2-----------|-3-3-3---2-----------2-----------|
 e-1-1-1---0-----------0-----------|-1-1-1---0-----------0-----------|
[ Tab from: http://www.guitartabs.cc/tabs/m/melvins/if_i_had_an_exorcism_tab.html ]
   1   2   3   4   1   2   3   4     1   2   3   4   1   2   3
 e---------------------------------|-----------------------------|
 b---------------------------------|-----------------------------|
 g---------------------------------|-----------------------------|
 d---------------------------------|-----------------------------|
 a-3-3-3---2-----------4-----------|---------6-5-6-5-6-5-4-------|
 e-1-1-1---0-----------2-----------|---------4-3-4-3-4-3-2-------|

   1   2   3   4   1   2   3   4     1   2   3
 e---------------------------------|-------------|
 b---------------------------------|-------------|
 g---------------------------------|-------------|
 d---------------------------------|-------------|
 a-3---5---3---8-------5-------7---|-----5-------|
 e-1---3---1---6-------3-------5---|-----3-------|

This isn't right but it sounds ok
 e---------------------------------|---------------------------------|
 b---------------------------------|---------------------------------|
 g---------------------------------|---------------------------------|
 d-------3^----------------3^------|-------2^------------------------|
 a---------------------------------|---------------------------------|
 e-1-1-0-----0-0-0-0-1-0-0---0-0-0-|-0-0-0-----0-0-0-0-0-0-0-0-------|

Play these two bars a few times
 e-0---0---0---0---0---0---0---0---|-0---0---0---0---0---0---0---0---|
 b-6^--6---6---6^--6---6---6---6---|-6^--6---6---6---6---6---6---6^--|
 g---------------------------------|---------------------------------|
 d---------------------------------|---------------------------------|
 a---------------------------------|---------------------------------|
 e---------------------------------|---------------------------------|

 e-0---0---0---0---0---0---0---0---|-0---0---0---0---0---0---0---0---|
 b-5^--5---5---5---5---5---5---5^--|-5^--5---5---5---5---5---5---5^--|
 g---------------------------------|---------------------------------|
 d---------------------------------|---------------------------------|
 a---------------------------------|---------------------------------|
 e---------------------------------|---------------------------------|

Keep playing this until the song ends
 e-0---0---0---0---0---0---0---0---|-0---0---0---0---0---0---0---0---|
 b-5---5---5---5---5---5---5---5---|-5---5---5---5---5---5---5---5---|
 g---------------------------------|---------------------------------|
 d---------------------------------|---------------------------------|
 a---------------------------------|---------------------------------|
 e---------------------------------|---------------------------------|
Comments