Melvins - Honey Bucket Chords & Tabs

 

Honey Bucket Chords & Tabs

Melvins Chords & Tabs

Version: 1 Type: Tab 0 ratings
1 star 2 stars 3 stars 4 stars 5 stars
comments

Honey Bucket Tab

   
ARTIST: MEVLINS
SONG: HONEY BUCKET
TABBED BY: Richard Rivera  @ f1rick0@yahoo.com.


i hope this work for you guys.


Tunning: D-A-D-G-B-E

E  |------------------------------------------------------|
B  |------------------------------------------------------|
G  |------------------------------------------------------|
D  |------------------------------------------------------|
A  |-0-0-000-0-00--0-0-0000-0-0000-0-0000-0-0-------------|
D  |-0-0-000-0-00--0-0-0000-0-0000-0-0000-0-0-------------|
     play this palmed  [play this part 3 times-----------]

E  |------------------------------------------------------|
B  |------------------------------------------------------|
G  |------------------------------------------------------|
D  |------------------------------------------------------|
A  |-2-2-22-22-222/3-3-33-0-00-0-00-000~------------------|
D  |-2-2-22-22-222/3-3-33-0-00-0-00-000~------------------|

E  |------------------------------------------------------|
B  |------------------------------------------------------|
G  |------------------------------------------------------|
D  |------------------------------------------------------|
A  |-0-000-2-222-3-333-5-5555---0-0-0---------------------|
D  |-0 000-2-222-3-333-5-5555---0-0-0---------------------|
[ Tab from: http://www.guitartabs.cc/tabs/m/melvins/honey_bucket_tab.html ]
E  |------------------------------------------------------|
B  |------------------------------------------------------|
G  |------------------------------------------------------|
D  |------------------------------------------------------|
A  |------------------------------------------------------|
D  |-0-0-0-0-0-0-0-0-0-0-0-0-0-0-0-0-0-0-0-0-0-0-0-|
   Listen to the song to know how many times to play.
E  |------------------------------------------------------|
B  |------------------------------------------------------|
G  |------------------------------------------------------|
D  |------------------------------------------------------|
A  |--------2-2-2--20202/3/550----------------------------|
D  |-0-0-0-20202020202/3/550------------------------------|
   this part must be played really fast in order to sound correct.

E  |------------------------------------------------------|
B  |------------------------------------------------------|
G  |------------------------------------------------------|
D  |------------------------------------------------------|
A  |-1-1/2/11~---1-1/2/111/22/11--------------------------|
D  |-1-1/2/11~---1-1/2/111/22/11--------------------------|
    
E  |------------------------------------------------------|
B  |------------------------------------------------------|
G  |------------------------------------------------------|
D  |------------------------------------------------------|
A  |-1-1/2------------------------------------------------|
D  |-1-1/2------------------------------------------------|
   End of song.
Comments