Melvins - Going Blind Chords & Tabs

 

Going Blind Chords & Tabs

Melvins Chords & Tabs

Version: 1 Type: Tab 0 ratings
1 star 2 stars 3 stars 4 stars 5 stars
comments

Going Blind Tab

Melvins
Stoner Witch
Going Blind (Kiss cover)

e|----------------------------------------|
b|----------------------------------------|
g|----------------------------------------|
d|----------------------2-----------2--2--|    play this.. something times
a|-10~--7~------7-6-5~--2------5-7--2--2--|
e|-8~---5~------5-4-3~--0--5-7------0--0--|

e|-------------5-3-------3----------------|
b|-----------------5-3-5---5-3-5----------|
g|----------------------------------------|    once
d|-3--------------------------------------|
a|-1--6--3--------------------------------|
e|----4--1--------------------------------|
[ Tab from: http://www.guitartabs.cc/tabs/m/melvins/going_blind_tab.html ]
e|-------------5-3-------3----------------|
b|-----------------5-3-5---5-3-3b---------|
g|----------------------------------------|
d|-3--------------------------------------|    once
a|-1--6--3--------------------------------|
e|----4--1--------------------------------|

e|-----------------------5b---------------|
b|-4b~-4b-4b-4b-4b/3b/2b------------------|
g|----------------------------------------|  beginning of the solo that i am
d|----------------------------------------|  VERY unsure of
a|----------------------------------------|
e|----------------------------------------|


*insert solo here*


then it restarts, thats everything except the solo
Comments