Melvins - Black Stooges Chords & Tabs

 

Black Stooges Chords & Tabs

Melvins Chords & Tabs

Version: 1 Type: Tab 0 ratings
1 star 2 stars 3 stars 4 stars 5 stars
comments

Black Stooges Tab

"Black Stooges"
      by
  the Melvins

: bennield@hotmail.com :

.   mute
^   bend


    Intro (4X):

      1  +  2  +  3  +  4  +  1  +  2  +  3  +  4  +
   b|------------------------------------------------|
   g|------------------------------------------------|
   d|-7/-9--9--7--9-----7/-9-----7/-9-----9--9--9--9-|
   a|-5/-7--7--5--7-----5/-7-----5/-7-----7--7--7--7-|
   e|------------------------------------------------|

   b|------------------------------------------------|
   g|-------------------7----------------------------|
   d|-10-------7-----7--5--------10----7/-10\9--7/-9-|
   a|-8--------5-----5-----------8-----5/-8-\7--5/-7-|
   e|------------------------------------------------|


    Then do this 2x:

   b|------------------------------------------------|
   g|------------------------------------------------|
   d|-9--9--9--9--9--9--9--9--9--9--9--9--9--9--9--9-|
   a|-7--7--7--7--7--7--7--7--7--7--7--7--7--7--7--7-|
   e|-0--0--0--0--0--0--0--0--0--0--0--0--0--0--0--0-|
      .  .  .  .  .  .  .  .  .  .  .  .  .  .  .  .


    Then this riff 3X:

      1  +  2  +  3  +  4  +  1  +  2  +  3  +  4  +
   b|-------------------------------------------------|
   g|-------------------------------------------------|
   d|-9--9-----9--9--------------------7--------------|
   a|-7--7-----7--7-----9--10-11-------5-----9-----7--|
   e|-------------------7--8--9--------------7-----5--|

   b|-------------------------|
   g|-------------------------|
   d|-9--9-----7-----------7--|
   a|-8--9-----5-----9-----5--|
   e|-6--7-----------7--------|


     Verse (5X):

      1  +  2  +  3  +  4  +  1  +  2  +  3  +  4  +
   b|-------------------------------------------------|
   g|-------------------------------------------------|
   d|-------------------------------------9-----------|
   a|-7--7--7--9--7--7--9--7--8--7--9--7-----7--7--9--|
   e|-------------------------------------------------|
      .  .  .  .  .  .  .  .  .  .  .  .     .  .  .

   b|-------------------------------------------------|
   g|-------------------------------------------------|
   d|-------------------------------9-----------------|
   a|-7--7--9--7--8--7--9--7--9--7-----7--7--9--7--7--|
   e|-------------------------------------------------|
      .  .  .  .  .  .  .  .  .  .     .  .  .  .  .
[ Tab from: http://www.guitartabs.cc/tabs/m/melvins/black_stooges_tab.html ]
   b|-------------------------------------------|
   g|-------------------------------------------|
   d|-------------------9-----------------------|
   a|-9--7--8--7--9--7-----7--7--9--7--7--9--7--|
   e|-------------------------------------------|
         .  .  .  .  .     .  .  .  .  .  .  .

   b|-------------------------------|
   g|-------------------------------|
   d|-7--7-----6--7-----7-----9-----|
   a|-5--5-----4--5-----5-----7-----|
   e|-------------------------------|


     Bridge (3/4):

      1  +  2  +  3  +  1  +  2  +  3  +  1  +  2  +  3  +
   b|-------------------------------------------------------|
   g|-------------------------------------------------------|
   d|-------------------------------------------------------|
   a|-7--------8--------7--------8--------7--------7--------|
   e|----6--7-----6--7-----6--7-----6--7-----6--7-----6--7--|
      .  .  .  .  .  .  .  .  .  .  .  .  .  .  .  .  .  .

   b|-------------------------------------------------------|
   g|-------------------------------------------------------|
   d|-------------------------------------------------------|
   a|-8--------8--------7--------8--------7--------8--------|
   e|----6--7-----6--7-----6--7-----6--7-----6--7-----0-0---|
      .  .  .  .  .  .  .  .  .  .  .  .  .  .  .  .

     4/4
      1  +  2  +  3  +  4  +  1  +  2  +  3  +  4  +
   b|-------------------------------------------------|
   g|-------------------------------------------------|
   d|------------------------/9-----------------------|
   a|-2----------------------/7-----------------------|
   e|-0-----------------------------------------------|

   b|-------------------------------------------------|
   g|-------------------------------------------------|
   d|-------------------7-----------------------9-----|
   a|-9--------8--------5--------9--------8-----7-----|
   e|-7--------6-----------------7--------6-----------|


    Back to Verse 4X


    Then:

      1  +  2  +  3  +  4  +  1  +  2  +  3  +  4  +
   b|-------------------------------------------------|
   g|-------------------------------------------------|
   d|-9--------------------------------------------0--|
   a|-7--------9--------10----------------------10-0--|
   e|----------7--------8-----------------------8-----|

   b|-------------------------------|
   g|-------------------------------|
   d|-7-----------------------------|
   a|-5--0--9-----9--0--5--4--2-----|
   e|----0--7-----7--0--3--2--0-----|

	Then 3 and half mins of drums and noise...
Comments