Melvins - Anaconda Chords & Tabs

 

Anaconda Chords & Tabs

Melvins Chords & Tabs

Version: 1 Type: Tab 0 ratings
1 star 2 stars 3 stars 4 stars 5 stars
comments

Anaconda Tab

   
Tabber:  zium

Tuning:  Normal

Date:    9 March 2004

Notes:   I'm not sure about how buzzo plays riff 1,
         but my interpretation will do the trick


Riff 1
E|------------------------------------------------------|
B|------------------------------------------------------|
G|------------------------------------------------------|
D|------------------------------------------------------|
A|--------------------------------3-3-3-3-----3-3-----3-|
E|-2b2b2b2b2b2b2b2b2b3-2b2b2b2b2b---------2-2-----2-2---|

Riff 1
E|-----------------------------------------|
B|-----------------------------------------|
G|-----------------------------------------|
D|---------------------2-2-2-2-2-2-2-2-2-2-|
A|---------------------2-2-2-2-2-2-2-2-2-2-|
E|-2b2b2b2b2b2b2b2b2b0-0-0-0-0-0-0-0-0-0-0-|

[ Tab from: http://www.guitartabs.cc/tabs/m/melvins/anaconda_tab.html ]
Riff 2
E|-----------------------------------------------------------------|
B|-----------------------------------------------------------------|
G|-----------------------------------------------------------------|
D|-4-4-4-4-4-4-4-5-5-5-5-5-5-5-5-5---3---4-5-4---4-4-4-4-4-4-4-----|
A|-4-4-4-4-4-4-4-5-5-5-5-5-5-5-5-5---3---4-5-4---4-4-4-4-4-4-4-3---|
E|-2-2-2-2-2-2-2-3-3-3-3-3-3-3-3-3-0-1-0-2-3-2-0-2-2-2-2-2-2-2---2-|
     x x x x x x   x x x x x x x x x x x x x x x   x x x x x x

Riff 3
E|---------------------------------------|-----------------|
B|---------------------------------------|-----------------|
G|---------------------------------------|-6-6-6-6-6-6-6-6-|
D|-5-4---4-4---4---4-4---2-4-5-5-5-5-5-5-|-6-6-6-6-6-6-6-6-|
A|-5-4---4-4---4---4-4---2-4-5-5-5-5-5-5-|-4-4-4-4-4-4-4-4-|
E|-3-2-0-2-2-0-2-0-2-2/0\0-2-3-3-3-3-3-3-|-----------------|
       x     x   x

Riff 4
E|-----------------------------------------------------------------|
B|-----------------------------------------------------------------|
G|-6-6-6-6-6-6-6-6-6-6-6-6-6-6-6-6-6-6-6-6-6-6-6-6-6-6-6-6-6-------|
D|-6-6-6-6-6-6-6-6-6-6-6-6-6-6-6-6-6-6-6-6-6-6-6-6-6-6-6-6-6-4-5-4-|
A|-4-4-4-4-4-4-4-4-4-4-4-4-4-4-4-4-4-4-4-4-4-4-4-4-4-4-4-4-4-4-5-4-|
E|-----------------------------------------------------------2-3-2-|
Comments