Melvins - Amazon Chords & Tabs

 

Amazon Chords & Tabs

Melvins Chords & Tabs

Version: 2 Type: Tab 0 ratings
1 star 2 stars 3 stars 4 stars 5 stars
comments

Amazon Tab

The Melvins
amazon

Tuning: I play it in Droped Db, but thats just me. You can play it in Dropped D if you want.


Verse:
|-------------------------------------|
|-------------------------------------|
|-------------------------------------|
|-------------------------------------|
|---0000000--3-4-3-0--00000-6-66-66---|
|---0000000--3-4-3-0--00000-6-66-66---|
   [..p.m..]         [.p.m.]

[ Tab from: http://www.guitartabs.cc/tabs/m/melvins/amazon_tab_ver_2.html ]
Chorus:
|-----------------------------------------------------------|
|-----------------------------------------------------------|
|--555-55-555-777-77-777-888-88-888-333/1010-101010---------|
|--555-55-555-777-77-777-888-88-888-333/1010-101010---------|
|--333-33-333-555-55-555-666-66-666-111/8-8--8-8-8----------|
|-----------------------------------------------------------|


Post-Chorus:
|---------------------|
|---------------------|
|---------------------|
|---------------------|
|---0000000--6-5-3-0--|
|---0000000--6-5-3-0--|
   [..p.m..]

play that a few times then, Then finish it with this.
|-------|
|-------|
|--5----|
|--5----|
|--3----|
|-------|

Play the whole thing over again, and then go read my other AMAZON tab to link em together.    :D
Ziggyandgiggy@yahoo.com
Comments