Melvins - Amazon Chords & Tabs

 

Amazon Chords & Tabs

Melvins Chords & Tabs

Version: 1 Type: Tab 0 ratings
1 star 2 stars 3 stars 4 stars 5 stars
comments

Amazon Tab

   
The Melvins
"amazon" and "AMAZON"
from The Maggot LP

ben.nield@gmail.com

Drop-D Tuning

	     "amazon"

 Verse:
|--------------------------------------------------------------|
|--------------------------------------------------------------|
|--------------------------------------------------------------|
|--------------------------------------------------------------|
|-0-0-0-0-0-0-0-0-0-0-0-3--4--3--0-0-0-0-0-0-6--6--x--6--6-3-0-|
|-0-0-0-0-0-0-0-0-0-0-0-3--4--3--0-0-0-0-0-0-6--6--x--6--6-3-0-|
  . . . . . . . . . . .          . . . . . . 

 Chorus:
|--------------------------------------------------------------------------|
|--------------------------------------------------------------------------|
|-5--5-5-5-5-5-5-5-7--7-7-7-7-7-7-7-8--8-8-8-8-8-8-8-3--3-3-3/10--10-10-10-|
|-5--5-5-5-5-5-5-5-7--7-7-7-7-7-7-7-8--8-8-8-8-8-8-8-3--3-3-3/10--10-10-10-|
|-3--3-3-3-3-3-3-3-5--5-5-5-5-5-5-5-6--6-6-6-6-6-6-6-1--1-1-1/8---8--8--8--|
|--------------------------------------------------------------------------|

 Post-Chorus:
|----------------------------------|
|----------------------------------|
|----------------------------------|
|----------------------------------|
|-0-0-0-0-4-0-0-0-4-0-0-6--5--3--0-|
|-0-0-0-0-4-0-0-0-4-0-0-6--5--3--0-|
  . . . .   . . .   . .

 Play that a few times, then let this ring:
|----------------------------
|----------------------------
|-5--------------------------
|-5--------------------------
|-3--------------------------
|----------------------------


	     "AMAZON"
[ Tab from: http://www.guitartabs.cc/tabs/m/melvins/amazon_tab.html ]
 Intro/Verse:
|---------------------------------|
|---------------------------------|
|---------------------------------|
|---------------------------------|
|-0---0---0-0-0-0-0---0---0-0-0-0-|
|-0---0---0-0-0-0-0---0---0-0-0-0-|
  .   .   . . . . .   .   . . . .

 Main Riff:
|-----------------------------------------------------------------|
|-----------------------------------------------------------------|
|-----------------------------------------------------------------|
|-------------------------------------------------4---3-----------|
|---------0-0-0-0-6---5---0-0-0-0---------0-0-0-0---------0-0-0-0-|
|-2---1---0-0-0-0---------0-0-0-0-4---3---0-0-0-0---------0-0-0-0-|
          . . . .         . . . .         . . . .         . . . . 

|-----------------------------------------------------------------|
|-----------------------------------------------------------------|
|-----------------------------------------------------------------|
|-6---5-----------------------------------------------------------|
|---------0-0-0-0-2---1---0-0-0-0-6---5---0-0-0-0-6---5---0-0-0-0-|
|---------0-0-0-0---------0-0-0-0---------0-0-0-0---------0-0-0-0-|
          . . . .         . . . .         . . . .         . . . . 

 Post-Main Riff/Outro:
|-----------------------------------------------------------------|
|-----------------------------------------------------------------|
|-----------------------------------------------------------------|
|-----------------------------------------------------------------|
|-6---5---0-0-0-0-6---5---0-0-0-0-6---5---0-0-0-0-6---5---0-0-0-0-|
|---------0-0-0-0---------0-0-0-0---------0-0-0-0---------0-0-0-0-|
          . . . .         . . . .         . . . .         . . . . 
Comments