Mellowdrone - Fashionably Uninvited Chords & Tabs

 

Fashionably Uninvited Chords & Tabs

Mellowdrone Chords & Tabs

Version: 1 Type: Tab 0 ratings
1 star 2 stars 3 stars 4 stars 5 stars
comments

Fashionably Uninvited Tab

Artist: Mellowdrone
Song: Fasionably Uninvited

This tab is far from perfect but I couldn't find any Mellowdrone tabs
on the internet so I decided to give it a shot myself. Any questions, 
comments, or suggestions can be sent to bborred@hotmail.com


Here's the little guitar part that starts off the song:

|---|
|---|
|-0-|
|-5-|
|-6-|
|---|


Then there's the bass part. It's a little tricky because of the timing.
I tried to note how many times each note is played but you'll hafta
listen to the song to figure it out exactly.
[ Tab from: http://www.guitartabs.cc/tabs/m/mellowdrone/fashionably_uninvited_tab.html ]
 x12 x2 x2 x12 x4
|----------------|
|----------------|
|----------------|
|----------------|
|-6--------------|
|----6--7--8---6-|


Then comes the little guitar riff:

|------------------------------|
|------------------------------|
|-8-8-7-----8-8-7------7--7--5-|
|-------5---------5------------|
|------------------------------|
|------------------------------|


Then there's another guitar riff:

|-13-15--13-15--13-15--13-15--18-15-|
|-----------------------------------|
|-----------------------------------|
|-----------------------------------|
|-----------------------------------|
|-----------------------------------|


And then the distorted chorus:

 x2 x4 x2 x4
|----3-----3-|
|----3-----4-|
|----4-----5-|
|-5--5--5--5-|
|-5-----3----|
|-3-----3----|
Comments