Melissa Mcclelland - Rooftop Chords & Tabs

 

Rooftop Chords & Tabs

Melissa Mcclelland Chords & Tabs

Version: 1 Type: Tab 0 ratings
1 star 2 stars 3 stars 4 stars 5 stars
comments

Rooftop Tab

This is that song you may have heard on degrassi by Melissa McClelland, shes fairly new
and most hav'nt heard of her. I could'nt find the tab myself on the web so I figured it
out on my own. Enjoy!

standard tuning.
e-----
b-----
g-----
d-----
a-----
e-----

Intro and Verses:
|-----------------------------------------------|
|--------------------0sl3----0sl3-----0---------|
|--0---0---0--------------0---------------------|
|2---0------------------------------------------|
|--------3---3---3---3-------------3-----3------|
|-----------------------------------------------|
[ Tab from: http://www.guitartabs.cc/tabs/m/melissa_mcclelland/rooftop_tab.html ]
Chorus:
|-----------------2----------------3-------------|
|------1-------------3---------0-----------------|
|--------0-----2-------------0---0---0-----------|
|---2-------0--------------2---------------------|
|0-----------------------2-----------------------|
|----------------------0-------------------------|
(repeat)

|------------------------------------------------|
|0sl3sl0---0sl3sl0----0------0sl3sl0---0---------|
|--------0---------------------------------------|
|------------------------------------------------|
|3-----------------3-----3---3-------3----3------|
|------------------------------------------------|


All the verses are the same, and the bridge is basically the same as the chorus.
Comments