Melee - War Chords & Tabs

 

War Chords & Tabs

Melee Chords & Tabs

Version: 2 Type: Tab

War Tab

e-----0---------0-----------0-------0-----------|
b-------0---------0-----------0-------0---------|
g---------16--------16----------8-------8-------|
d--14---------14----------6-------6-------------|
a-----------------------------------------------|
e-----------------------------------------------|

[ Tab from: http://www.guitartabs.cc/tabs/m/melee/war_tab_ver_2.html ]
NOW.. dont argue this shit. its right. i got the whole tab but the other guy was pretty 
on.. MELEE sent me this tab.. personally in a e-mail.. so yea, its correct..thats the 
intro.. and the finger position slides up like this after the last time


e-----0---------0-----------0--------0--------|
b-------0---------0-----------0--------0------|
g---------11--------11----------8--------8----|
d---9---------9-----------6--------6----------|
a---------------------------------------------|
e---------------------------------------------|

have fun guys. .keep on supporting this amazing band..