Megaman 3 - Bubblemans Theme Chords & Tabs

 

Bubblemans Theme Chords & Tabs

Megaman 3 Chords & Tabs

Version: 1 Type: Tab 0 ratings
1 star 2 stars 3 stars 4 stars 5 stars
comments

Bubblemans Theme Tab

Song: Bubbleman's Theme
Tabbed By: Tim Barr
Date: 10/31/03
Comments: I have two versions, the second one is an octave lower,which
may be easier for you guys.
                                                           
                                                                 
E|--15--15------15--15------|
B|--------------------------|
G|--------------------------|
D|--------------------------|
A|--------------------------|
E|--------------------------|


                                                                 
|--15--15------15--15------|
|--------------------------|
|--------------------------|
|--------------------------|
|--------------------------|
|--------------------------|

                                                                                                                                     

                                                      
--11--------11--13----15--|----13----11----11--13----|
--------------------------|--------------------------|
--------------------------|--------------------------|
--------------------------|--------------------------|
--------------------------|--------------------------|
--------------------------|--------------------------|


                                                                             
--10--11----10----8----6--|--------18------16----|--15----------13--11--18--|
--------------------------|----------------------|--------------------------|
--------------------------|----------------------|--------------------------|
--------------------------|----------------------|--------------------------|
--------------------------|----------------------|--------------------------|
--------------------------|----------------------|--------------------------|


                                                                       
----16----15------20--19--|----------------19--22--|
--------------------------|------------20----------|
--------------------------|------------------------|
--------------------------|------------------------|
--------------------------|------------------------|
--------------------------|------------------------|
                                      

                                                   
--15-------20----------20----------20----------20-|
-----16-------20----------20----------20----------|
--------17-------20-17-------20-17-------20-17----|
--------------------------------------------------|
--------------------------------------------------|
--------------------------------------------------|


                                                                      
--------------------------------------------------|
--20----------20----------20----------20----------|
-----19----------19----------19----------19-------|
--------21----------21----------21----------21----|
-----------22----------22----------22----------22-|
--------------------------------------------------|


                                                                      
|--15-------20----------20----------20----------20-|
|-----16-------20----------20----------20----------|
|--------17-------20-17-------20-17-------20-17----|
|--------------------------------------------------|
|--------------------------------------------------|
|--------------------------------------------------|


                                                                      
--------------------------------------------------|
--20----------20----------20----------20----------|
-----19----------19----------19----------19-------|
--------21----------21----------21----------21----|
-----------22----------22----------22----------22-|
--------------------------------------------------|
                                                                            
                                                         
                                                      
--11--------11--13----15--|----13----11----11--13----|
--------------------------|--------------------------|
--------------------------|--------------------------|
--------------------------|--------------------------|
--------------------------|--------------------------|
--------------------------|--------------------------|


                                                                             
--10--11----10----8----6--|--------18------16----|--15----------13--11--18--|
--------------------------|----------------------|--------------------------|
--------------------------|----------------------|--------------------------|
--------------------------|----------------------|--------------------------|
--------------------------|----------------------|--------------------------|
--------------------------|----------------------|--------------------------|


                                                                       
----16----15------20--19--|----------------19--22--|
--------------------------|------------20----------|
--------------------------|------------------------|
--------------------------|------------------------|
--------------------------|------------------------|
--------------------------|------------------------|
                                      

                                                   
--15-------20----------20----------20----------20-|
-----16-------20----------20----------20----------|
--------17-------20-17-------20-17-------20-17----|
--------------------------------------------------|
--------------------------------------------------|
--------------------------------------------------|


                                                                      
--------------------------------------------------|
--20----------20----------20----------20----------|
-----19----------19----------19----------19-------|
--------21----------21----------21----------21----|
-----------22----------22----------22----------22-|
--------------------------------------------------|

[ Tab from: http://www.guitartabs.cc/tabs/m/megaman_3/bubblemans_theme_tab.html ]
                                                                      
|--15-------20----------20----------20----------20-|
|-----16-------20----------20----------20----------|
|--------17-------20-17-------20-17-------20-17----|
|--------------------------------------------------|
|--------------------------------------------------|
|--------------------------------------------------|


                                                                               
--------------------------------------------------|
--20----------20----------20----------20----------|
-----19----------19----------19----------19-------|
--------21----------21----------21----------21----|
-----------22----------22----------22----------22-|
--------------------------------------------------|


Octave Lower Version:
E|--3--3------3--3------|
B|----------------------|
G|----------------------|
D|----------------------|
A|----------------------|
E|----------------------|

                                                                                
--3--3------3--3------|
----------------------|
----------------------|
----------------------|
----------------------|
----------------------|

                                                                                                                                         
|-------------------3--|----1------------1----|
|--4--------4--6-------|---------4----4-------|
|----------------------|----------------------|
|----------------------|----------------------|
|----------------------|----------------------|
|----------------------|----------------------|

                                                                    
-----------------------|--------6------4----|--3----------1-----6--|
--3--4----3----1-------|--------------------|----------------4-----|
--------------------3--|--------------------|----------------------|
-----------------------|--------------------|----------------------|
-----------------------|--------------------|----------------------|
-----------------------|--------------------|----------------------|

                                                                 
----4----3------8--7--|---------------7--10--|
----------------------|------------8---------|
----------------------|----------------------|
----------------------|----------------------|
----------------------|----------------------|
----------------------|----------------------|


                                                                         
|--3-----8-------8-------8-------8-|
|----4-----8-------8-------8-------|
|------5-----8-5-----8-5-----8-5---|
|----------------------------------|
|----------------------------------|
|----------------------------------|


                                                                         
----------3-------3-------3-------|
--8---0-----3-0-----3-0-----3-0---|
----7---0-------0-------0-------0-|
----------------------------------|
----------------------------------|
----------------------------------|


                                                                      
--3-----8-------8-------8-------8-|----------3-------3-------3-------|
----4-----8-------8-------8-------|--8---0-----3-0-----3-0-----3-0---|
------5-----8-5-----8-5-----8-5---|----7---0-------0-------0-------0-|
----------------------------------|----------------------------------|
----------------------------------|----------------------------------|
----------------------------------|----------------------------------|
                                                                            
                                                                            
                                                                      
-------------------3--|----1------------1----|-----------------------|
--4--------4--6-------|---------4----4-------|--3--4----3----1-------|
----------------------|----------------------|--------------------3--|
----------------------|----------------------|-----------------------|
----------------------|----------------------|-----------------------|
----------------------|----------------------|-----------------------|


                                                                   
--------6------4----|--3----------1-----6--|----4----3------8--7--|
--------------------|----------------4-----|----------------------|
--------------------|----------------------|----------------------|
--------------------|----------------------|----------------------|
--------------------|----------------------|----------------------|
--------------------|----------------------|----------------------|


                                                                                
---------------7--10--|
------------8---------|
----------------------|
----------------------|
----------------------|
----------------------|


                                                                      
--3-----8-------8-------8-------8-|----------3-------3-------3-------|
----4-----8-------8-------8-------|--8---0-----3-0-----3-0-----3-0---|
------5-----8-5-----8-5-----8-5---|----7---0-------0-------0-------0-|
----------------------------------|----------------------------------|
----------------------------------|----------------------------------|
----------------------------------|----------------------------------|


                                                                         
|--3-----8-------8-------8-------8-|
|----4-----8-------8-------8-------|
|------5-----8-5-----8-5-----8-5---|
|----------------------------------|
|----------------------------------|
|----------------------------------|


                                                                    
----------3-------3-------3-------|
--8---0-----3-0-----3-0-----3-0---|
----7---0-------0-------0-------0-|
----------------------------------|
----------------------------------|
----------------------------------|
Comments