Megaman 2 - Metal Mans Theme Chords & Tabs

 

Metal Mans Theme Chords & Tabs

Megaman 2 Chords & Tabs

Version: 1 Type: Tab 0 ratings
1 star 2 stars 3 stars 4 stars 5 stars
comments

Metal Mans Theme Tab

Song: Megaman 2: Metal Man's Theme
Tabbed By: Tim Barr
MX ID: SpADeD
Date: 10/14/03
                                                                       
E||-----9-13----------8-9-8-6--6-4-6-|---9-13----------8-9-8-6--6-4-6-|
B||--11-------11---11----------------|---------11---11----------------|
G||----------------------------------|--------------------------------|
D||----------------------------------|--------------------------------|
A||----------------------------------|--------------------------------|
E||----------------------------------|--------------------------------|


                                                           
---9-13----------8-9-8-6--6-4-6-|--9----11----9--9--11----|
---------11---11----------------|-------------------------|
--------------------------------|-------------------------|
--------------------------------|-------------------------|
--------------------------------|-------------------------|
--------------------------------|-------------------------|


                                                                    
-----9-13----------8-9-8-6--6-4-6-|---9-13----------8-9-8-6--6-4-6-|
--11-------11---11----------------|---------11---11----------------|
----------------------------------|--------------------------------|
----------------------------------|--------------------------------|
----------------------------------|--------------------------------|
----------------------------------|--------------------------------|


                                                           
---9-13----------8-9-8-6--6-4-6-|--9----11----9--9--11----|
---------11---11----------------|-------------------------|
--------------------------------|-------------------------|
--------------------------------|-------------------------|
--------------------------------|-------------------------|
--------------------------------|-------------------------|


                                                             
-------------------------------|-----------------------13---|
--11-11-9--11--9--11--------9--|--11-11-11----------11------|
------------------------10-----|----------------------------|
-------------------------------|----------------------------|
-------------------------------|----------------------------|
-------------------------------|----------------------------|


                                                                              
--11------9--8---9---8--|--9----8---9--9-9--8--8--|--6-6-4--6--4--6-------4--|
------------------------|-------------------------|--------------------6-----|
------------------------|-------------------------|--------------------------|
------------------------|-------------------------|--------------------------|
------------------------|-------------------------|--------------------------|
------------------------|-------------------------|--------------------------|


                                                                             
--6-6-6----------6-13---|--11------9--8---9---8--|--9--9--8-8--9-----6-13---|
------------------------|------------------------|--------------------------|
------------------------|------------------------|--------------------------|
------------------------|------------------------|--------------------------|
------------------------|------------------------|--------------------------|
------------------------|------------------------|--------------------------|


                                                          
--11----9----8----9-11---|--------------------------13---|
-------------------------|--11--11--11-9---11----11------|
-------------------------|-------------------------------|
-------------------------|-------------------------------|
-------------------------|-------------------------------|
-------------------------|-------------------------------|


                                                                
--11----9----8----9-11--13-|---13---13-11-9-11-9-8-9-8-6-8-6-4-|
---------------------------|-----------------------------------|
---------------------------|-----------------------------------|
---------------------------|-----------------------------------|
---------------------------|-----------------------------------|
---------------------------|-----------------------------------|


                                                          
--11----9----8----9-11---|--------------------------13---|
-------------------------|--11--11--11-9---11----11------|
-------------------------|-------------------------------|
-------------------------|-------------------------------|
-------------------------|-------------------------------|
-------------------------|-------------------------------|


                                                              
--11----9----8----9-11--13-|---13-13--13--13--13-------------|
---------------------------|-----------------------------9---|
---------------------------|-----------------------10-10-----|
---------------------------|---------------------------------|
---------------------------|---------------------------------|
---------------------------|---------------------------------|


                                                                    
-----9-13----------8-9-8-6--6-4-6-|---9-13----------8-9-8-6--6-4-6-|
--11-------11---11----------------|---------11---11----------------|
----------------------------------|--------------------------------|
----------------------------------|--------------------------------|
----------------------------------|--------------------------------|
----------------------------------|--------------------------------|

[ Tab from: http://www.guitartabs.cc/tabs/m/megaman_2/metal_mans_theme_tab.html ]
                                                           
---9-13----------8-9-8-6--6-4-6-|--9----11----9--9--11----|
---------11---11----------------|-------------------------|
--------------------------------|-------------------------|
--------------------------------|-------------------------|
--------------------------------|-------------------------|
--------------------------------|-------------------------|


                                                                    
-----9-13----------8-9-8-6--6-4-6-|---9-13----------8-9-8-6--6-4-6-|
--11-------11---11----------------|---------11---11----------------|
----------------------------------|--------------------------------|
----------------------------------|--------------------------------|
----------------------------------|--------------------------------|
----------------------------------|--------------------------------|


                                                           
---9-13----------8-9-8-6--6-4-6-|--9----11----9--9--11----|
---------11---11----------------|-------------------------|
--------------------------------|-------------------------|
--------------------------------|-------------------------|
--------------------------------|-------------------------|
--------------------------------|-------------------------|


                                                             
-------------------------------|-----------------------13---|
--11-11-9--11--9--11--------9--|--11-11-11----------11------|
------------------------10-----|----------------------------|
-------------------------------|----------------------------|
-------------------------------|----------------------------|
-------------------------------|----------------------------|


                                                                              
--11------9--8---9---8--|--9----8---9--9-9--8--8--|--6-6-4--6--4--6-------4--|
------------------------|-------------------------|--------------------6-----|
------------------------|-------------------------|--------------------------|
------------------------|-------------------------|--------------------------|
------------------------|-------------------------|--------------------------|
------------------------|-------------------------|--------------------------|


                                                                             
--6-6-6----------6-13---|--11------9--8---9---8--|--9--9--8-8--9-----6-13---|
------------------------|------------------------|--------------------------|
------------------------|------------------------|--------------------------|
------------------------|------------------------|--------------------------|
------------------------|------------------------|--------------------------|
------------------------|------------------------|--------------------------|


                                                          
--11----9----8----9-11---|--------------------------13---|
-------------------------|--11--11--11-9---11----11------|
-------------------------|-------------------------------|
-------------------------|-------------------------------|
-------------------------|-------------------------------|
-------------------------|-------------------------------|


                                                                
--11----9----8----9-11--13-|---13---13-11-9-11-9-8-9-8-6-8-6-4-|
---------------------------|-----------------------------------|
---------------------------|-----------------------------------|
---------------------------|-----------------------------------|
---------------------------|-----------------------------------|
---------------------------|-----------------------------------|


                                                          
--11----9----8----9-11---|--------------------------13---|
-------------------------|--11--11--11-9---11----11------|
-------------------------|-------------------------------|
-------------------------|-------------------------------|
-------------------------|-------------------------------|
-------------------------|-------------------------------|


                                                              
--11----9----8----9-11--13-|---13-13--13--13--13-------------|
---------------------------|-----------------------------9---|
---------------------------|-----------------------10-10-----|
---------------------------|---------------------------------|
---------------------------|---------------------------------|
---------------------------|---------------------------------|


                                                                    
-----9-13----------8-9-8-6--6-4-6-|---9-13----------8-9-8-6--6-4-6-|
--11-------11---11----------------|---------11---11----------------|
----------------------------------|--------------------------------|
----------------------------------|--------------------------------|
----------------------------------|--------------------------------|
----------------------------------|--------------------------------|


                                                           
---9-13----------8-9-8-6--6-4-6-|--9----11----9--9--11----|
---------11---11----------------|-------------------------|
--------------------------------|-------------------------|
--------------------------------|-------------------------|
--------------------------------|-------------------------|
--------------------------------|-------------------------|


                                                                    
-----9-13----------8-9-8-6--6-4-6-|---9-13----------8-9-8-6--6-4-6-|
--11-------11---11----------------|---------11---11----------------|
----------------------------------|--------------------------------|
----------------------------------|--------------------------------|
----------------------------------|--------------------------------|
----------------------------------|--------------------------------|


                                                          
---9-13----------8-9-8-6--6-4-6-|--9----11----9--9------||
---------11---11----------------|-----------------------||
--------------------------------|-----------------------||
--------------------------------|-----------------------||
--------------------------------|-----------------------||
--------------------------------|-----------------------||


Comments