Megaman 2 - Heat Mans Theme Chords & Tabs

 

Heat Mans Theme Chords & Tabs

Megaman 2 Chords & Tabs

Version: 1 Type: Tab 0 ratings
1 star 2 stars 3 stars 4 stars 5 stars
comments

Heat Mans Theme Tab

Song: Megaman 2: Heatman's Theme
Tabbed By: Tim Barr
MX ID: SpADeD
Date: 10/16/03

Guitar 1:                                                            
E||----------------------------|---------------------------|
B||-----3--1-2--3--------------|----1----0--1--------------|
G||----------------2--1--0-----|-------3-------0-----------|
D||------------------------4-3-|------------------4--3-2-1-|
A||----------------------------|---------------------------|
E||----------------------------|---------------------------|


                                                        
---------------------------|---------------------------|
----3--1-2--3--------------|----1----0--1--------------|
---------------2--1--0-----|-------3-------0-----------|
-----------------------4-3-|------------------4--3-2-1-|
---------------------------|---------------------------|
---------------------------|---------------------------|


                                                        
---------------------------|---------------------------|
----3--1-2--3--------------|----1----0--1--------------|
---------------2--1--0-----|-------3-------0-----------|
-----------------------4-3-|------------------4--3-2-1-|
---------------------------|---------------------------|
---------------------------|---------------------------|


                                                            
----------------------------|------------------------------|
----3--1-2--3---------------|--1-1----3--3------1---3------|
---------------2--1--0------|-------2------2--2---2--------|
-----------------------4--3-|------------------------------|
----------------------------|------------------------------|
----------------------------|------------------------------|

Guitar 2: 
--17--------17--17--17-15-13-15-|---------15-15--17--15--------|
--------------------------------|-----------------------17--18-|
--------------------------------|------------------------------|
--------------------------------|------------------------------|
--------------------------------|------------------------------|
--------------------------------|------------------------------|


                                         
----------------------------------------|
------------15-----------------------10-|
---------14-----14--12-14--12-----10----|
------15-----------------------12-------|
---17-----------------------------------|
----------------------------------------|


                                                                             
--10--10-12-13-17---------------13-12-10-8-|--17--------17--17--17-15-13-15-|
-------------------15-----13-15------------|--------------------------------|
-----------------------14------------------|--------------------------------|
-------------------------------------------|--------------------------------|
-------------------------------------------|--------------------------------|
-------------------------------------------|--------------------------------|

[ Tab from: http://www.guitartabs.cc/tabs/m/megaman_2/heat_mans_theme_tab.html ]
                                                                        
---------15-15--17--15--------|----------------------------------------|
-----------------------17--18-|------------15-----------------------10-|
------------------------------|---------14-----14--12-14--12-----10----|
------------------------------|------15-----------------------12-------|
------------------------------|---17-----------------------------------|
------------------------------|----------------------------------------|


                                                                             
--12-12--10-13-13--10-10-12-10-13-----|
--------------------------------------|
--------------------------------------|
--------------------------------------|
--------------------------------------|
--------------------------------------|

--17--------17--17--17-15-13-15-|
--------------------------------|
--------------------------------|
--------------------------------|
--------------------------------|
--------------------------------|

---------15-15--17--15--------|----------------------------------------|
-----------------------17--18-|------------15-----------------------10-|
------------------------------|---------14-----14--12-14--12-----10----|
------------------------------|------15-----------------------12-------|
------------------------------|---17-----------------------------------|
------------------------------|----------------------------------------|


                                                                             
--10--10-12-13-17---------------13-12-10-8-|--17--------17--17--17-15-13-15-|
-------------------15-----13-15------------|--------------------------------|
-----------------------14------------------|--------------------------------|
-------------------------------------------|--------------------------------|
-------------------------------------------|--------------------------------|
-------------------------------------------|--------------------------------|


                                                                        
---------15-15--17--15--------|----------------------------------------|
-----------------------17--18-|------------15-----------------------10-|
------------------------------|---------14-----14--12-14--12-----10----|
------------------------------|------15-----------------------12-------|
------------------------------|---17-----------------------------------|
------------------------------|----------------------------------------|


                                                                    
--12-12--10-13-13--10-10-12-10-13-----|------|------|------|------||
--------------------------------------|------|------|------|------||
--------------------------------------|------|------|------|------||
--------------------------------------|------|------|------|------||
--------------------------------------|------|------|------|------||
--------------------------------------|------|------|------|------||
Comments