Megaman 2 - Flash Mans Theme Chords & Tabs

 

Flash Mans Theme Chords & Tabs

Megaman 2 Chords & Tabs

Version: 1 Type: Tab 0 ratings
1 star 2 stars 3 stars 4 stars 5 stars
comments

Flash Mans Theme Tab

Song: Megaman 2: Flash Man's Theme
Tabbed By: Tim Barr
MX ID: SpADeD
Date: 1/11/04
Comments: Fairly easy tab, if you want i can make a more complex version of this, just email
me. send_in_the_klowns@hotmail.com
                                                           
E||--------------------------|----------------------------|
B||----------0--3----2-------|--1----0--------------------|
G||-------0---------------2--|------------0--2--0---------|
D||--2-----------------------|---------------------2-0----|
A||--------------------------|----------------------------|
E||--------------------------|----------------------------|


                                                        
-----2-2-2-3---2-2-2-3-----|----2-2-2-3--7--7-5--3--2--|
---------------------------|---------------------------|
---------------------------|---------------------------|
--2------------------------|---------------------------|
---------------------------|---------------------------|
---------------------------|---------------------------|


                                                        
--------------------------|----------------------------|
----------0--3----2-------|--1----0--------------------|
-------0---------------2--|------------0--2--0---------|
--2-----------------------|---------------------2-0----|
--------------------------|----------------------------|
--------------------------|----------------------------|


                                                        
-----2-2-2-3---2-2-2-3-----|----2-2-2-3--7--7-5--3--2--|
---------------------------|---------------------------|
---------------------------|---------------------------|
--2------------------------|---------------------------|
---------------------------|---------------------------|
---------------------------|---------------------------|


                                                        
--------------------------|----------------------------|
----------0--3----2-------|--1----0--------------------|
-------0---------------2--|------------0--2--0---------|
--2-----------------------|---------------------2-0----|
--------------------------|----------------------------|
--------------------------|----------------------------|


                                                        
-----2-2-2-3---2-2-2-3-----|----2-2-2-3--7--7-5--3--2--|
---------------------------|---------------------------|
---------------------------|---------------------------|
--2------------------------|---------------------------|
---------------------------|---------------------------|
---------------------------|---------------------------|


                                                        
--------------------------|----------------------------|
----------0--3----2-------|--1----0--------------------|
-------0---------------2--|------------0--2--0---------|
--2-----------------------|---------------------2-0----|
--------------------------|----------------------------|
--------------------------|----------------------------|


                                                                               
-----2-2-2-3---2-2-2-3-----|--5-5--5--5--5-7--------|----0--7--5--7-----5--3--|
---------------------------|------------------------|-------------------------|
---------------------------|------------------------|-------------------------|
--2------------------------|------------------------|-------------------------|
---------------------------|------------------------|-------------------------|
---------------------------|------------------------|-------------------------|


                                                                       
--5--7----0--------3--|--2----2----2--0-----0--|-------------0--3--5--|
----------------------|------------------3-----|----------------------|
----------------------|------------------------|----------------------|
----------------------|------------------------|----------------------|
----------------------|------------------------|----------------------|
----------------------|------------------------|----------------------|


                                                                          
----0--7--5--7-----5--3--|--5--7----0--------3--|--2----2----3--5--2--0--|
-------------------------|----------------------|------------------------|
-------------------------|----------------------|------------------------|
-------------------------|----------------------|------------------------|
-------------------------|----------------------|------------------------|
-------------------------|----------------------|------------------------|


                                                                 
-------------0--3--7--|--10----------------|--9--------8--------|
----------------------|--------------------|--------------------|
----------------------|--------------------|--------------------|
----------------------|--------------------|--------------------|
----------------------|--------------------|--------------------|
----------------------|--------------------|--------------------|


                                                                               
------------------------|--------------------------------|--10----------------|
--8--------------8--10--|--11--12--11--12--10------------|--------------------|
-----9--------9---------|----------------------12--9--7--|--------------------|
------------------------|--------------------------------|--------------------|
------------------------|--------------------------------|--------------------|
------------------------|--------------------------------|--------------------|


                                              
--9--------8--------|------------------------|
--------------------|--8--------------8--10--|
--------------------|-----9--------9---------|
--------------------|------------------------|
--------------------|------------------------|
--------------------|------------------------|


                                                                   
--12--------------11--14--17--19--|-------------------------------|
------12--12--12------------------|-------------------------------|
----------------------------------|--------16--14--16-----14--12--|
----------------------------------|-------------------------------|
----------------------------------|----19-------------------------|
----------------------------------|-------------------------------|


                                                                               
--------------------------|---------------------------|-----------------------|
------12------------------|---------------------------|----------------8--10--|
--14------------------12--|--11----11----11--9--7--9--|-------------9---------|
------------14------------|---------------------------|-----------------------|
--------------------------|---------------------------|-----------------------|
--------------------------|---------------------------|-----------------------|


                                                                          
-------7--5--7-----5--3--|--5--7----0--------3--|--2----2----3--5--2--0--|
-------------------------|----------------------|------------------------|
----9--------------------|----------------------|------------------------|
-------------------------|----------------------|------------------------|
-------------------------|----------------------|------------------------|
-------------------------|----------------------|------------------------|


                                                                 
-------------0--3--7--|--10----------------|--9--------8--------|
----------------------|--------------------|--------------------|
----------------------|--------------------|--------------------|
----------------------|--------------------|--------------------|
----------------------|--------------------|--------------------|
----------------------|--------------------|--------------------|


                                                                               
------------------------|--------------------------------|--10----------------|
--8--------------8--10--|--11--12--11--12--10------------|--------------------|
-----9--------9---------|----------------------12--9--7--|--------------------|
------------------------|--------------------------------|--------------------|
------------------------|--------------------------------|--------------------|
------------------------|--------------------------------|--------------------|


                                              
--9--------8--------|------------------------|
--------------------|--8--------------8--10--|
--------------------|-----9--------9---------|
--------------------|------------------------|
--------------------|------------------------|
--------------------|------------------------|


                                                                   
--12--------------11--14--17--19--|-------------------------------|
------12--12--12------------------|-------------------------------|
----------------------------------|--------16--14--16-----14--12--|
----------------------------------|-------------------------------|
----------------------------------|----19-------------------------|
----------------------------------|-------------------------------|


                                                                               
--------------------------|---------------------------|-----------------------|
------12------------------|---------------------------|----------------8--10--|
--14------------------12--|--11----11----11--9--7--9--|-------------9---------|
------------14------------|---------------------------|-----------------------|
--------------------------|---------------------------|-----------------------|
--------------------------|---------------------------|-----------------------|


                                                                          
-------7--5--7-----5--3--|--5--7----0--------3--|--2----2----3--5--2--0--|
-------------------------|----------------------|------------------------|
----9--------------------|----------------------|------------------------|
-------------------------|----------------------|------------------------|
-------------------------|----------------------|------------------------|
-------------------------|----------------------|------------------------|


                                                                 
-------------0--3--7--|--10----------------|--9--------8--------|
----------------------|--------------------|--------------------|
----------------------|--------------------|--------------------|
----------------------|--------------------|--------------------|
----------------------|--------------------|--------------------|
----------------------|--------------------|--------------------|


                                                                               
------------------------|--------------------------------|--10----------------|
--8--------------8--10--|--11--12--11--12--10------------|--------------------|
-----9--------9---------|----------------------12--9--7--|--------------------|
------------------------|--------------------------------|--------------------|
------------------------|--------------------------------|--------------------|
------------------------|--------------------------------|--------------------|


                                              
--9--------8--------|------------------------|
--------------------|--8--------------8--10--|
--------------------|-----9--------9---------|
--------------------|------------------------|
--------------------|------------------------|
--------------------|------------------------|

[ Tab from: http://www.guitartabs.cc/tabs/m/megaman_2/flash_mans_theme_tab.html ]
                                                                   
--12--------------11--14--17--19--|-------------------------------|
------12--12--12------------------|-------------------------------|
----------------------------------|--------16--14--16-----14--12--|
----------------------------------|-------------------------------|
----------------------------------|----19-------------------------|
----------------------------------|-------------------------------|


                                                                               
--------------------------|---------------------------|-----------------------|
------12------------------|---------------------------|----------------8--10--|
--14------------------12--|--11----11----11--9--7--9--|-------------9---------|
------------14------------|---------------------------|-----------------------|
--------------------------|---------------------------|-----------------------|
--------------------------|---------------------------|-----------------------|


                                                                          
-------7--5--7-----5--3--|--5--7----0--------3--|--2----2----3--5--2--0--|
-------------------------|----------------------|------------------------|
----9--------------------|----------------------|------------------------|
-------------------------|----------------------|------------------------|
-------------------------|----------------------|------------------------|
-------------------------|----------------------|------------------------|


                                                                 
-------------0--3--7--|--10----------------|--9--------8--------|
----------------------|--------------------|--------------------|
----------------------|--------------------|--------------------|
----------------------|--------------------|--------------------|
----------------------|--------------------|--------------------|
----------------------|--------------------|--------------------|


                                                                               
------------------------|--------------------------------|--10----------------|
--8--------------8--10--|--11--12--11--12--10------------|--------------------|
-----9--------9---------|----------------------12--9--7--|--------------------|
------------------------|--------------------------------|--------------------|
------------------------|--------------------------------|--------------------|
------------------------|--------------------------------|--------------------|


                                              
--9--------8--------|------------------------|
--------------------|--8--------------8--10--|
--------------------|-----9--------9---------|
--------------------|------------------------|
--------------------|------------------------|
--------------------|------------------------|


                                                                   
--12--------------11--14--17--19--|-------------------------------|
------12--12--12------------------|-------------------------------|
----------------------------------|--------16--14--16-----14--12--|
----------------------------------|-------------------------------|
----------------------------------|----19-------------------------|
----------------------------------|-------------------------------|


                                                                               
--------------------------|---------------------------|-----------------------|
------12------------------|---------------------------|----------------8--10--|
--14------------------12--|--11----11----11--9--7--9--|-------------9---------|
------------14------------|---------------------------|-----------------------|
--------------------------|---------------------------|-----------------------|
--------------------------|---------------------------|-----------------------|


                                                                          
-------7--5--7-----5--3--|--5--7----0--------3--|--2----2----3--5--2--0--|
-------------------------|----------------------|------------------------|
----9--------------------|----------------------|------------------------|
-------------------------|----------------------|------------------------|
-------------------------|----------------------|------------------------|
-------------------------|----------------------|------------------------|


                                                                 
-------------0--3--7--|--10----------------|--9--------8--------|
----------------------|--------------------|--------------------|
----------------------|--------------------|--------------------|
----------------------|--------------------|--------------------|
----------------------|--------------------|--------------------|
----------------------|--------------------|--------------------|


                                                                               
------------------------|--------------------------------|--10----------------|
--8--------------8--10--|--11--12--11--12--10------------|--------------------|
-----9--------9---------|----------------------12--9--7--|--------------------|
------------------------|--------------------------------|--------------------|
------------------------|--------------------------------|--------------------|
------------------------|--------------------------------|--------------------|


                                              
--9--------8--------|------------------------|
--------------------|--8--------------8--10--|
--------------------|-----9--------9---------|
--------------------|------------------------|
--------------------|------------------------|
--------------------|------------------------|


                                                                   
--12--------------11--14--17--19--|-------------------------------|
------12--12--12------------------|-------------------------------|
----------------------------------|--------16--14--16-----14--12--|
----------------------------------|-------------------------------|
----------------------------------|----19-------------------------|
----------------------------------|-------------------------------|


                                                                               
--------------------------|---------------------------|-----------------------|
------12------------------|---------------------------|----------------8--10--|
--14------------------12--|--11----11----11--9--7--9--|-------------9---------|
------------14------------|---------------------------|-----------------------|
--------------------------|---------------------------|-----------------------|
--------------------------|---------------------------|-----------------------|


                                                                          
-------7--5--7-----5--3--|--5--7----0--------3--|--2----2----3--5--2--0--|
-------------------------|----------------------|------------------------|
----9--------------------|----------------------|------------------------|
-------------------------|----------------------|------------------------|
-------------------------|----------------------|------------------------|
-------------------------|----------------------|------------------------|


                                                                 
-------------0--3--7--|--10----------------|--9--------8--------|
----------------------|--------------------|--------------------|
----------------------|--------------------|--------------------|
----------------------|--------------------|--------------------|
----------------------|--------------------|--------------------|
----------------------|--------------------|--------------------|


                                                                               
------------------------|--------------------------------|--10----------------|
--8--------------8--10--|--11--12--11--12--10------------|--------------------|
-----9--------9---------|----------------------12--9--7--|--------------------|
------------------------|--------------------------------|--------------------|
------------------------|--------------------------------|--------------------|
------------------------|--------------------------------|--------------------|


                                              
--9--------8--------|------------------------|
--------------------|--8--------------8--10--|
--------------------|-----9--------9---------|
--------------------|------------------------|
--------------------|------------------------|
--------------------|------------------------|


                                                                   
--12--------------11--14--17--19--|-------------------------------|
------12--12--12------------------|-------------------------------|
----------------------------------|--------16--14--16-----14--12--|
----------------------------------|-------------------------------|
----------------------------------|----19-------------------------|
----------------------------------|-------------------------------|


                                                                               
--------------------------|---------------------------|-----------------------|
------12------------------|---------------------------|----------------8--10--|
--14------------------12--|--11----11----11--9--7--9--|-------------9---------|
------------14------------|---------------------------|-----------------------|
--------------------------|---------------------------|-----------------------|
--------------------------|---------------------------|-----------------------|


                                                                          
-------7--5--7-----5--3--|--5--7----0--------3--|--2----2----3--5--2--0--|
-------------------------|----------------------|------------------------|
----9--------------------|----------------------|------------------------|
-------------------------|----------------------|------------------------|
-------------------------|----------------------|------------------------|
-------------------------|----------------------|------------------------|


                                                                 
-------------0--3--7--|--10----------------|--9--------8--------|
----------------------|--------------------|--------------------|
----------------------|--------------------|--------------------|
----------------------|--------------------|--------------------|
----------------------|--------------------|--------------------|
----------------------|--------------------|--------------------|


                                                                               
------------------------|--------------------------------|--10----------------|
--8--------------8--10--|--11--12--11--12--10------------|--------------------|
-----9--------9---------|----------------------12--9--7--|--------------------|
------------------------|--------------------------------|--------------------|
------------------------|--------------------------------|--------------------|
------------------------|--------------------------------|--------------------|


                                              
--9--------8--------|------------------------|
--------------------|--8--------------8--10--|
--------------------|-----9--------9---------|
--------------------|------------------------|
--------------------|------------------------|
--------------------|------------------------|


                                    
--12--------------11--14--17--19--||
------12--12--12------------------||
----------------------------------||
----------------------------------||
----------------------------------||
----------------------------------||


Comments