Megadeth - Youthanasia Chords & Tabs

 

Youthanasia Chords & Tabs

Megadeth Chords & Tabs

Version: 1 Type: Tab 0 ratings
1 star 2 stars 3 stars 4 stars 5 stars
comments

Youthanasia Tab

#----------------------------------PLEASE NOTE---------------------------------#
#This file is the author's own work and represents their interpretation of the #
#song. You may only use this file for private study, scholarship, or research. #
#------------------------------------------------------------------------------##
From: L.Metcalfe@cm.cf.ac.uk (L Metcalfe)

____   ____                                                         ___   ____
 |Y\   /Y| ________ ________            ______   ________ _________ |YI   |Y|
 ||\\ //|| |>----<| |>----<|     /\     |>---<\  |>----<| |\-----/| |||   |||
 ||\\Y//|| ||T___\! ||T~~~\!    //\\    ||T~~\\\ ||T___\! |/~TYT~\| ||l___|||
 |||\Y/||| ||<-<]   |||  ___   ///\\\   |||  ||| ||<-<]      |||    ||<--->||
 ||| Y ||| ||l_____ ||l__|Y|  //<==>\\  ||l__/// ||l_____    |||MAT |||~~~|||
 |||   ||| |^----<| |^--->|| ///~~~~\\\ |^---[ Tab from: http://www.guitartabs.cc/tabs/m/megadeth/youthanasia_tab.html ]
                                                             Play 2x
|--------------------------------|--------------------------------||
|--------------------------------|--------------------------------||
|--------------------------------|--------------------------------||
|--------9-----------------------|--------9-----------------------||
|2-------7-------9-8-----9-12----|2-------7-------9-8-------------||
|0---------------7-6-----7-10----|0---------------7-6-------------||


Double Time: (Sort of thing)
------------
                                                              Play 3x
||--------------------------------|--------------------------------||
||--------------------------------|--------------------------------||
||--------------------------------|--------------------------------||
||-----------h-p-h-p-h-p-h-p-h----|-----------h-p-h-p-h-p-h--------||
||----------0-5-0-7-0-8-0-7-0-10--|----------0-5-0-7-0-8-0-7~~~~~~~||
||0-0---0-------------------------|0-0---0-------------------------||
  . .   .                          . .   .

||--------------------------------|--------------------------------||
||--------------------------------|--------------------------------||
||--------------------------------|--------------------------------||
||-----------h-p-h-p-h-p-h-p-h----|-----------h-p------------------||
||----------0-5-0-7-0-8-0-7-0-10--|----------0-5-0-5-----6-----7---||
||0-0---0-------------------------|0-0---0---------3-----4-----5---||
  . .   .                          . .   .

Lead Solo:
----------

||--------------------------------|--------------------------------|
||--------------------------------|--------------------------------|
||--------------------------------|--------------------------------|
||--------------------------------|4-------------------------------|
||2-------------------------------|2-------------------------------|
||0-------------------------------|--------------------------------|

                                                             Play 4x
|--------------------------------|--------------------------------||
|--------------------------------|--------------------------------||
|--------------------------------|--------------------------------||
|3-------------------------------|--------------------------------||
|1-------------------------------|5---------------5-----6-----7---||
|--------------------------------|3---------------3-----4-----5---||


Bridge:
-------

|--------------------------------|--------------------------------|
|--------------------------------|--------------------------------|
|--------------------------------|--------------------------------|
|--------------------------------|--------------------------------|
|--------------------------------|----------------5-----6-----7---|
|0-0---0---0-0---0-0---0---0-0---|0-0---0---0-0---3-----4-----5---|
 . .   .   . .   . .   .   . .    . .   .   . .


|--------------------------------|--------------------------------|
|--------------------------------|--------------------------------|
|--------------------------------|--------------------------------|
|--------------------------------|--------------------------------|
|--------------------------------|----------------7-----6-----5---|
|0-0---0---0-0---0-0---0---0-0---|0-0---0---0-0---5-----4-----3---|
 . .   .   . .   . .   .   . .    . .   .   . .

|--------------------------------|--------------------------------|
|--------------------------------|--------------------------------|
|--------------------------------|--------------------------------|
|--------------------------------|--------------------------------|
|--------------------------------|----------------5-----6-----7---|
|0-0---0---0-0---0-0---0---0-0---|0-0---0---0-0---3-----4-----5---|
 . .   .   . .   . .   .   . .    . .   .   . .


|--------------------------------|--------------------------------|
|--------------------------------|--------------------------------|
|--------------------------------|--------------------------------|
|--------------------------------|--------------------------------|
|--------------------------------|----------------7-----6-----5---|
|0-0---0---0-0---0-0---0---0-0---|0-0---0---0-0---5-----4-----3---|
 . .   .   . .   . .   .   . .    . .   .   . .

|--------------------------------|--------------------------------|
|--------------------------------|--------------------------------|
|--------------------------------|--------------------------------|
|--------------------------------|--------------------------------|
|--------------------------------|--------------------------------|
|--------------------------------|--------------------------------|


Tempo 1:
--------

Verse 4:
--------

||--------------------------------|--------------------------------|
||--------------------------------|--------------------------------|
||--------------------------------|--------------------------------|
||--------9-----------------------|--------9-----------------------|
||2-------7-------9-8-----9-12----|2-------7-------9-8------9-5----|
||0---------------7-6-----7-10----|0---------------7-6------7-3----|

                                                             Play 3x
|--------------------------------|--------------------------------||
|--------------------------------|--------------------------------||
|--------------------------------|--------------------------------||
|--------9-----------------------|--------9-----------------------||
|2-------7-------9-8-----9-12----|2-------7-------9-8-------------||
|0---------------7-6-----7-10----|0---------------7-6-------------||


--
+---------------------------------------------+----------------------------+
| Lee Metcalfe                                | E-Mail: scm2lm@cm.cf.ac.uk | 
| University of Wales, College of Cardiff     |    Irc: Bud3              / 
| Tied to machines that make me be -Metallica | XPilot: Bud3             /
+---------------------------------------------+-------------------------':)

Comments