Megadeth - World Needs A Hero Chords & Tabs

 

World Needs A Hero Chords & Tabs

Megadeth Chords & Tabs

Version: 1 Type: Tab 1 rating
1 star 2 stars 3 stars 4 stars 5 stars
comments

World Needs A Hero Tab

   
                      THE WORLD NEEDS A HERO
                                BY
                             MEGADETH


Slide down                \
Slide up                  /
Hammer on                 h
Pull Off                  p
Bend 1 hole step          b
Bend half a step         hb
Slight Bend              sb
Pre bend                 pb
Hold bend                bh
Release bend             rb
Palm mute                 *


Here are all the main riffs and solos
I have'nt put on how many times you play them or anything
But it's not hard to figure out where they come in and stuff.

 
|Riff 1:                                         End Riff1|                                                         
|-------------|-------------|-------------|---------------|
|-------------|-------------|-------------|---------------|
|-------------|-------------|-------------|---------------|
|-------------|-------------|-------------|---------------|
|-x-x-x-x-----|-x-x-x-x-----|-x-x-x-x-----|-x-x-x-x-------|
|-x-x-x-x-----|-x-x-x-x-----|-x-x-x-x-----|-x-x-x-x-------|

 
|Riff 2:                                          
|-------------|-------------|-------------|---------------|
|-------------|-------------|-------------|---------------|
|-------------|-------------|-------------|---------------|
|-------------|-------------|-------------|---------------|
|-x-x-x-x-----|-x-x-x-x-----|-x-x-x-x-----|-x-x-x-x-------|
|-x-x-x-x-----|-x-x-x-x-----|-x-x-x-x-----|-x-x-x-x-------|
                        
                       End Riff 2 |
|---------------------------------|
|---------------------------------|
|---------------------------------|
|---------------------------------|
|-x-x-x-x-x-x-x--x-x-x-x-x-x-x-x--|
|-x-x-x-x-x-x-x--x-x-x-x-x-x-x-x--|


|Riff 3:
|---------------------|---------------------|--------------------|
|---------------------|---------------------|--------------------|
|---------------------|---------------------|--------------------|
|---------------------|---------------------|--------------------|
|-9--9--9--10--7--8---|-9--9--9--10--7--8---|-9--9--9--10--7--8--|
|-7--7--7--8---5--6---|-7--7--7--8---5--6---|-7--7--7--8---5--6--|

           End Riff 3 |
|---------------------|---------------------|
|---------------------|---------------------|
|---------------------|---------------------|
|---------------------|---------------------|
|-9--9--9--10--7--8---|-7\------------------|
|-7--7--7--8---5--6---|-5\------------------|



|Riff 4:                             End Riff 4 |
|--------------------------|--------------------|
|--------------------------|--------------------|
|--------------------------|--------------------|
|--------------------------|--------------------|
|-----3sb------3sb---------|-----3--5--6--5--3--|
|-3h5-------3h5-----5--3---|-3h5----------------|



|Riff 5 :                   End Riff 5|
|-------------------------------------|
|-------------------------------------|
|-------------------------------------|
|-------------------------------------|
|----------------3p0-5p0-6p0-5p0-3p0--|
|-5--3-3-3-3-5p0----------------------| 
    * * * * 



|Riff 6                    End Riff 6| 
|------------------------------------|
|------------------------------------|
|------------------------------------|
|------------------------------------|
|------------------------------------|
|-3p0-0-0-0-0-3p0-3p0-0-0-0-0-0-0-0--|
      * * * *         * * * * * * * 


|Pre SOLO:
|-------------------------------------|-------------------------------------|
|-13131313-13131313-13131313-13131313-|-14141414-14141414-14141414-14141414-|
|-12121212-12121212-12121212-12121212-|-13131313-13131313-13131313-13131313-|
|-------------------------------------|-------------------------------------|
|-------------------------------------|-------------------------------------|
|-------------------------------------|-------------------------------------|

|-------------------------------------|-------------------------------------|
|-15151515-15151515-15151515-15151515-|-16161616-16161616-16161616-16161616-|
|-14141414-14141414-14141414-14141414-|-15151515-15151515-15151515-15151515-|
|-------------------------------------|-------------------------------------|
|-------------------------------------|-------------------------------------|
|-------------------------------------|-------------------------------------|



|-------------------------------------|-------------------------------------|
|-17171717-17171717-17171717-17171717-|-18181818-18181818-18181818-18181818-|
|-16161616-16161616-16161616-16161616-|-17171717-17171717-17171717-17171717-|
|-------------------------------------|-------------------------------------|
|-------------------------------------|-------------------------------------|
|-------------------------------------|-------------------------------------|

[ Tab from: http://www.guitartabs.cc/tabs/m/megadeth/world_needs_a_hero_tab.html ]
                     
|-------------------------------------|-------------------------------------|
|-19191919-19191919-19191919-19191919-|-20202020-20202020-20202020-20202020-|
|-18181818-18181818-18181818-18181818-|-19191919-19191919-19191919-19191919-|
|-------------------------------------|-------------------------------------|
|-------------------------------------|-------------------------------------|
|-------------------------------------|-------------------------------------|



SOLO:
|------------------------------|--------------------------------------------|
|-8----8-------8----8----8-----|--------------------------------------------|
|-7b-----7b----7hb----7----7---|-(7)rb-p5--7-----5sb-----------5------------|
|------------------------------|--------------7-------7--5--7-----7~~~~~\---|
|------------------------------|--------------------------------------------|
|------------------------------|--------------------------------------------|


|----------------------------------------|-----------5---7---8----8---10----|
|----------------------------------------|-------4h5---5---5---/8---8-------|
|------------------------5---4h5p4-------|-4-5-7----------------------------|
|--------------------0h7---7-------7-6h7-|----------------------------------|
|-------3h4p5-0--5/7---------------------|----------------------------------|
|-5-5-5----------------------------------|----------------------------------|


|-7h8p7----8-7-----12h13p12----12---------------------|
|-------10-----/13----------15----15-13---------------|
|---------------------------------------12h14p12------|
|------------------------------------------------15-x-|
|-----------------------------------------------------|
|-----------------------------------------------------|


|-----------------------------------------|
|-------------------------------------17--|
|----------------------------16-17-18-----|
|-----------------------------------------|
|-x-x-x-x--x-x-x-x--x-x-x-x---------------|
|-x-x-x-x--x-x-x-x--x-x-x-x---------------|


|-----17-----17------17------17-----17------17-----17-----17---|
|-20b----20b----20b-------------20b------------20b----20b------|
|-----------------------19hb-----------19hb--------------------|
|--------------------------------------------------------------|
|--------------------------------------------------------------|
|--------------------------------------------------------------|


|----------------------------------------------------------------19-20-22-|-22hb--|
|----------------------------------------------17p16----19-20-22----------|-------|
|----------------------------17p16----16-17-19-------19-------------------|-------|
|----------17p16----16-17-19-------19-------------------------------------|-------|
|-16-17-19-------19-------------------------------------------------------|-------|
|-------------------------------------------------------------------------|-------|



 Outro fills:
|
|----------------------------------------------------17-|-20b~~~17---------------|
|-17--17-20-----------------17-20-----------------17----|---------20p17-20b2-----|
|-19b-------19hb-(19)17-19b-------19hb-(19)17-19b-------|------------------------|
|-------------------------------------------------------|------------------------|
|-------------------------------------------------------|------------------------|
|-------------------------------------------------------|------------------------|


|20---20b-(20)p17-----------17-------|-20b--20--17-------20b--20--17-------------|
|----------------20p17-20b-----20p17-|-------------20p17-------------20p17-20b~~~|
|------------------------------------|-------------------------------------------|
|------------------------------------|-------------------------------------------|
|------------------------------------|-------------------------------------------|
|------------------------------------|-------------------------------------------|


|------------------------------------------------------|
|-----20-20-20-20------20-20-20-20---------------------|
|-19b-------------19b--------------19pb--(19)p17-19----|
|---------------------------------------------------19-|
|------------------------------------------------------|
|------------------------------------------------------|


|--------------------------------------------------|
|-----------------------20-------------------------|
|-17-19hb-(19)p17----17----19b-(19)p17-19b--17~~~--|
|-----------------19-------------------------------|
|--------------------------------------------------|
|--------------------------------------------------|


Gtr1
|-----------------------------------------|------------------------|-17~~~\------|
|-----------------------------------------|------------------------|-------------|
|-----------------------------------------|-------17--19--20-19-17-|-------------|
|-----------------------------------------|-17h19------------------|-------------|
|-----------------------------------------|------------------------|-------------|
|-----------------------------------------|------------------------|-------------|
|
|gtr2
|-----------------------------------------|------------------------|-------------|
|---17----19-----17-----19-----17---------|------------------------|-------------|
|---17----19-----17-----19-----17---------|------------------------|-------------|
|-19----19----19----19------19-----19-17--|------------------------|-------------|
|-----------------------------------------|------------------------|-------------|
|-----------------------------------------|------------------------|-5\----------|


Well that's about it all the riff's and solo's and shit are all here have fun 
And enjoy :)And don't forget that METAL RULES:
usuall comments and stuff andrew_mellor@talk21.com
Comments