Megadeth - World Needs A Hero Chords & Tabs

 

World Needs A Hero Chords & Tabs

Megadeth Chords & Tabs

Version: 2 Type: Bass Tab 0 ratings
1 star 2 stars 3 stars 4 stars 5 stars
comments

World Needs A Hero Bass Tab

Artist: Megadeth 
Album: The World Needs a Hero
Song: The World Needs a Hero (bass)

Do not put my tabs on a athor site whit out asking me
at MegaDeth_16@hotmail.com


[ Tab from: http://www.guitartabs.cc/tabs/m/megadeth/world_needs_a_hero_btab_ver_2.html ]
  intro        x12    
|-----------------|
|----------------*|
|-----3-5-6-5-3---|
|0-3-5------------|
                x2            x8                                       x2
|------------------------||-------------------||------------------------|
|*----------------------*||-------------------||------------------------|
|*1-1-1-2--0-1-1-1-2-1-0*||*-------2-4-5-4-2-*||*1-1-1-2--0-1-1-1-2-1-0*|
|--------4---------------||--4-2-4------------||--------4---------------|
          CHORUS x4               x2                   x2
|-----------------------||-------------------|---------------------------|
|*--------------------7-||*-----------------*| *------------------------*|
|*----7-8-7-8---7-8-9---||*-------2-4-5-4-2-*| *-1-1-1-2--0-1-1-1-2-1-0-*|
|--5h6-------5h6--------||--4-2-4------------|----------4----------------|

|------------------------------------|
|------------------------------------|
|------------------------------------|
|-5/-1\-5/-1\-3\-5/-1\-5/-1\-3-3-3-3-|

    Solo                                                              x3
|-------------------------------------------------------------------|
|*-----------------------------------------------------------------*|
|*-0-0-0-0-0-0-0-0-1-1-1-1-1-1-1-1-2-2-2-2-2-2-2-2-3-3-3-3-3-3-3-3-*|
|-------------------------------------------------------------------|

  solo2        x8
|-------------------|
|*-----------------*|
|*-------2-4-5-4-2-*|
|--4-2-4------------| 
                                                          

                         x2                      x7
|--------------------------||-----------------------|
|*------------------------*||*-------------------7--|
|*-1-1-1-2--0-1-1-1-2-1-0-*||*----7-8-7-8---7-8-9---|
|---------4----------------||--5h6-------5h6--------|
Comments