Megadeth - Wake Up Dead Chords & Tabs

 

Wake Up Dead Chords & Tabs

Megadeth Chords & Tabs

Version: 1 Type: Bass Tab 0 ratings
1 star 2 stars 3 stars 4 stars 5 stars
comments

Wake Up Dead Bass Tab

   
Megadeth – Wake up dead.

Tuning: G, D, A, E.

||-------------------------------------------------||
||-------------------------------------------------||
||------------------1~--------3~--------5-------6/-||
||0--000-3~--0--000-----0—000----0—000----0—000----||
Play this bar times four.

||------------------------||
||------------------------||
||10--9---------10--9-----||
||--------9-10------------||
Then this times four.

||--------------------------------------------||
||--------------------------------------------||
||-9-10--------------------9-10---------------||
||-------12-14-10-12-9-10--------12-14-10-12--||
This times one then straight into the next bar.

||---------------------------------------------------||
||-----------------------5------------5--------------||
||---------------------------------------------------||
||-8-7-6--0--5--0--6--5----6--0--5-0----0-0-0-0-0-0--||
Play this times four then,

||--------------||
||--------------||
||-7---6-5-4-0--||
||---8----------||

||---------------------------------------||
||-----------------------5------------5--||
||---------------------------------------||
||-8-7-6--0--5--0--6--5----6--0--5-0-----||

||--------------||
||--------------||
||-7---6-5-4-0--||
||---8----------||

||---------------------------------------||
||-----------------------5------------5--||
||---------------------------------------||
||-8-7-6--0--5--0--6--5----6--0--5-0-----||

||--------------||
||--------------||
||-7---6-5-4-0--||
||---8----------||

||---------------------------------------||
||-----------------------5------------5--||
||---------------------------------------||
||-8-7-6--0--5--0--6--5----6--0--5-0-----||

||-----------------||
||-----------------||
||-7---6-5-4-------||
||---8-------5-8-7-||

||--------------------------------||
||--------------------------------||
||------------------------3\1-----||
||---6---1--1--1---3-----------3--||
Play this times one, then into the next bar.

||---------------------------------------------||
||---------------------------------------------||
||------------2---------------------5----4--2--||
||4----4-4-4-----2------3-4--4-4-4-------------||
Play this times four.
[ Tab from: http://www.guitartabs.cc/tabs/m/megadeth/wake_up_dead_btab.html ]
||------------------------------------||
||------------------------------------||
||------------------------------------||
||0-0-0-0-0-0-0--3--0-0-0-0-0-0-0--5--||

||---------------------------||
||---------------------------||
||---------------------------||
||0-0-0-0-0-0-0--3--0-0-5-2--||

||--------------------------------------------------||
||--------------------------------------------------||
||--------------------------------------------------||
||-4-4-4-4-4-4-4-4-4-4-4-4-4-4-4-4-4-4-4-4-4-4-4-4--||

||---------------------------||
||---------------------------||
||-----------------2---3-----||
||-5--7---4---------------3--||

||--------------------------------------------------||
||--------------------------------------------------||
||--------------------------------------------------||
||-2-2-2-2-2-2-2-2-2-2-2-2-2-2-2-2-2-2-2-2-2-2-2-2--||

||-------------------------------||
||------6------------------------||
||----5-----5---5----------------||
||--4---------4------------------||

||--------------------------------------------------||
||--------------------------------------------------||
||--------------------------------------------------||
||-2-2-2-2-2-2-2-2-2-2-2-2-2-2-2-2-2-2-2-2-2-2-2-2--||

||-------------------------------||
||------6------------------------||
||----5-----5---5----------------||
||--4---------4------------------||

||--------------------------------------------------||
||--------------------------------------------------||
||--------------------------------------------------||
||-2-2-2-2-2-2-2-2-2-2-2-2-2-2-2-2-2-2-2-2-2-2-2-2--||

||-------------------------------||
||------6------------------------||
||----5-----5---5----------------||
||--4---------4------------------||

||---------------------------------||
||---------------------------------||
||-------2--------------5----4--2--||
||4--4-4---2-2---4--4-4------------||
Play this times three.

||-------------||
||-------------||
||-------------||
||-2---1----0--||

Pause for two bars.

||-------------------------------------||
||-------0-----0-0--2------------------||
||----------2----------------5--5-5-5--||
||-0--0----------------0--0------------||
Play this times twelve.

Please e-mail me with any corrections or improvements, although I’m reasonably sure this is correct, Clarke@houseonrock87.freeserve.co.uk
Comments