Megadeth - Vortex Chords & Tabs

 

Vortex Chords & Tabs

Megadeth Chords & Tabs

Version: 1 Type: Tab 1 rating
1 star 2 stars 3 stars 4 stars 5 stars
comments

Vortex Tab

MEGADETHS SONG: VORTEX
ALBUM: CRYPTIC WRITINGS

WELL HER IT IS FOLKS...
AFTER LOOKING ALL OVER THE INTERNET THEN BUYING THE TAB BOOK I FOUND NO CORRECT FORM OF THIS SONG..
I HAD TO SIT DOWN AND DO IT MYSELF....THIS IS HOW I PLAY IT AND IT SOUNDS CORRECT TO ME
THE INTERLUDE AND OUTRO RIFF SOUND DEAD NUTS RIGHT ON THE MONEY
ANY CORRECTIONS EMAIL KAPCO@WI.RR.COM

INTRO AND CHORUS RIFF                                                   
|-------------------------------------------------|---------------------
|-------------------------------------------------|---------------------
|-------------------------------------------------|---------------------
|--------4--------3--------0h2h3--2p0-------------|---------------------
|--2--2-----2--2-----2--2--------------3p2--0--2--|---------------------
|-------------------------------------------------|---------------------
                                                                        

                                                                        
----------------------------------------------------|--|----------------
----------------------------------------------------|--|----------------
----------------------------------------------------|--|----------------
------4--------3--------3p2p0--3p2p0----------------|--|----------------
2--2-----2--2-----2--2----------------3p2p0--3p2p0--|--|----------------
----------------------------------------------------|--|----------------
                                                                        

                                                                        
------------------------------------------------------------------------
------------------------------------------------------------------------
------------------------------------------------------------------------
------4--------3--------0h2h3--2p0--2--0--------4-----------------------
2--2-----2--2-----2--2--------------------3--2--2--------------5--4-----
---------------------------------------------------0--1--2--3-----------
                                                                        

                                                                        
---------------------------|--------------------------------------------
---------------------------|--------------------------------------------
---------------------------|--------------------------------------------
------------------2--0-----|--------------------------------------------
2--5--------------------4--|--------------------------------------------
------2--3--4--5-----------|--------------------------------------------
                                                                        

     VERSE RIFF X 2                                                     
||---------------------------------------|------------------------------
||---------------------------------------|------------------------------
||*--4--7--------------------------------|------------------------------
||*--4--7--5-----------------------------|------------------------------
||---2--5--5-----------------------------|------------------------------
||---------3--2--2--2--2--1--1--1--1-----|------------------------------
                                                                        

                                      2x                                
--------------------------------------||--------------------------------
--------------------------------------||--------------------------------
4--7--12-----------------------------*||--------------------------------
4--7--12-----------------------------*||--------------------------------
2--5--10------------------------------||--------------------------------
----------2--2--2--2--1--1--1--1------||--------------------------------
                                                                        

     Bridge                                                             
||-------------------------------------------|--------------------------
||-------------------------------------------|--------------------------
||*------------------------------------------|--------------------------
||*------------------------------------------|--------------------------
||---------2--------0-----1--1-----1p0-------|--------------------------
||---0--0-----0--0-----0--------0-------3p0--|--------------------------
                                                                        

                                                                        
---------------------------------------|--------------------------------
---------------------------------------|--------------------------------
------------------------------------5--|--------------------------------
---------------------------------3--3--|--------------------------------
------2--------0--------1-----1--1-----|--------------------------------
0--0-----0--0-----0--0-----0-----------|--------------------------------
                                                                        
[ Tab from: http://www.guitartabs.cc/tabs/m/megadeth/vortex_tab.html ]
Bridge                                                                  
----------------------------------------|-------------------------------
----------------------------------------|-------------------------------
----------------------------------------|-------------------------------
----------------------------------------|-------------------------------
------2--------0-----1--1-----1p0-------|-------------------------------
0--0-----0--0-----0--------0-------3p0--|-------------------------------
                                                                        

                                                                        
------------------------------------------------------------------------
------------------------------------------------------------------------
------------------------------------------------------------------------
---------------------------------3--------------------------------------
------2--------0--------1-----1--1--------------------------------------
0--0-----0--0-----0--0-----0--------------------------------------------
                                                                        

     Interlude                                                          
||---------------------------------------------------|------------------
||---------------------------------------------------|------------------
||*-------------------------7------------------------|------------------
||*--------2h3p2-----2h4/7-----7--5--3--5h6p5--3--0--|------------------
||---2--5---------5----------------------------------|------------------
||---------------------------------------------------|------------------
                                                                        

PM PM                 PM>>>>>>>>>              4x                       
-----------------------------------------------||--|--------------------
-----------------------------------------------||--|--------------------
----------------------------------------------*||--|--------------------
------5---------------------------------------*||--|--------------------
---------3h4p3--------4--4--4--4--3--3--3--3---||--|--------------------
3--3------------6--3--2--2--2--2--1--1--1--1---||--|--------------------
                                                                        

     SOLO BACKING RIFF                                                  
||----------------------------------------------------------------------
||----------------------------------------------------------------------
||*--4--------7-----------4--------7-----------4--------7---------------
||*--4--------7-----------4--------7-----------4--------7---------------
||---2--0--2--5--0--2--0--2--0--2--5--0--2--0--2--0--2--5--0--2--0------
||----------------------------------------------------------------------
                                                                        

   PM PM    PM PM                                                       
------------------------------||----------------------------------------
------------------------------||----------------------------------------
4-----------------2-----------||----------------------------------------
4--------5--------2-----------||----------------------------------------
2--------5--------0--0--2--0--||----------------------------------------
---0--0--3--0--3--------------||----------------------------------------
                                                                        

                                                                        
------------------------------------------------------------------|-----
------------------------------------------------------------------|-----
6-----------------6-----------------6-----------------6-----------|-----
6--------5--------6--------5--------6--------5--------6--------5--|-----
4--------5--4--7--4--------5--4--7--4--------5--4--7--4--------5--|-----
---3--6--3-----------3--6--3-----------3--6--3-----------3--6--3--|-----
                                                                        

                                                                        
------------------------|-----------------------------------------------
------------------------|-----------------------------------------------
---------------2--------|-----------------------------------------------
------5--------2--------|-----------------------------------------------
------5--------0--0--2--|-----------------------------------------------
0--0--3--0--3-----------|-----------------------------------------------
                                                                        

     PM PM    PM PM                   PM    PM    PM                    
||----------------------------------------------------------------------
||----------------------------------------------------------------------
||*---------------------------------------------------------------------
||*--------7--------5-----6-----5--5-----5-----4-----3--3--1--1--3------
||---------------------6-----6-----6-----------------3--3--1--1--3------
||---5--5-----5--5--------------------3-----2-----1---------------------
                                                                        

                            4x                                          
----------------------------||------------------------------------------
---------------2------------||------------------------------------------
---------------2--------5--*||------------------------------------------
---2--0--------2--5--7--5--*||------------------------------------------
2--------2-----0--5--7------||------------------------------------------
------------0---------------||------------------------------------------
                                                                        

Comments