Megadeth - Train Of Consequences Chords & Tabs

 

Train Of Consequences Chords & Tabs

Megadeth Chords & Tabs

Version: 1 Type: Tab 0 ratings
1 star 2 stars 3 stars 4 stars 5 stars
comments

Train Of Consequences Tab

   
From: L.Metcalfe@cm.cf.ac.uk (L Metcalfe)

____   ____                                                         ___   ____
 |Y\   /Y| ________ ________            ______   ________ _________ |YI   |Y|
 ||\\ //|| |>----<| |>----<|     /\     |>---<\  |>----<| |\-----/| |||   |||
 ||\\Y//|| ||T___\! ||T~~~\!    //\\    ||T~~\\\ ||T___\! |/~TYT~\| ||l___|||
 |||\Y/||| ||<-<]   |||  ___   ///\\\   |||  ||| ||<-<]      |||    ||<--->||
 ||| Y ||| ||l_____ ||l__|Y|  //<==>\\  ||l__/// ||l_____    |||MAT |||~~~|||
 |||   ||| |^----<| |^--->|| ///~~~~\\\ |^---[ Tab from: http://www.guitartabs.cc/tabs/m/megadeth/train_of_consequences_tab.html ]
                                  * Not sure about this bit ;{
|--------------------------------|--------------------------------|
|--------------------------------|--------------------------------|
|--------------------------------|--------------------------------|
|------------5---------------7---|--------------------------------|
|------7---------------9---------|------10--------9-----10----9---|
|8---------------10--------------|12----------12------------------|


Harmonica Solo:
---------------

||--------------------------------|-----------------------------------|
||--------------------------------|-----------------------------------|
||--------------------------------|------------------------__3__-__3__|
||------------------------2p0-----|------------------------|-T-|-|-T_||
||x-x---x---x-x-x---x---x-----2p0-|x-x---x---x-x-x---x---x-x-x-x-x-x-x|
||x-x---x---x-x-x---x---x---------|x-x---x---x-x-x---x---x-x-x-x-x-x-x|

                                                             Play 3x
|--------------------------------|--------------------------------||
|--------------------------------|--------------------------------||
|--------------------------------|--------------------------------||
|------------------------2p0-----|------------------------3-------||
|x-x---x---x-x-x---x---x-----2p0-|x-x---x---x-x-x---x---x-1-------||
|x-x---x---x-x-x---x---x---------|x-x---x---x-x-x---x---x---------||

End.

Any complaints?

--
+---------------------------------------------+----------------------------+
| Lee Metcalfe                                | E-Mail: scm2lm@cm.cf.ac.uk | 
| University of Wales, College of Cardiff     |    Irc: Bud3              / 
| Tied to machines that make me be -Metallica | XPilot: Bud3             /
+---------------------------------------------+-------------------------':)

From: m152253@proffa.cc.tut.fi (Myrberg Toni)
Subject: TAB:MEGADETH,"Train of Consequences"

^=pull-off/hammer-on
x=muffled strings
\=slide
~=trill
b=bend

			____________________
			Train of Consequense
			--------------------

Rhy.Fig.1
||-----------------------------------|
||-----------------------------------|
||*----------------------------------|
||*--x-x---x---x-x-x---x---x-2^0-----|
||---x-x---x---x-x-x---x---------2^0-|
||---x-x---x---x-x-x---x-------------|

|----------------------------------------|----------------------------|
|----------------------------------------|----------------------------|
|----------------------------------------|----------------------------|
|----x-x---x---x-x-x---x---x-x-x-x-x-x-x-|x-x---x---x-x-x---x-2^0-----|
|----x-x---x---x-x-x---x---x-x-x-x-x-x-x-|x-x---x---x-x-x---------2^0-|
|----x-x---x---x-x-x---x---x-x-x-x-x-x-x-|x-x---x---x-x-x-------------|

                         end Rhy.Fig.1
|------------------------------------||
|------------------------------------||
|-----------------------------------*||
|----x-x---x---x-x-x---x---x-8--(8)\*||
|----x-x---x---x-x-x---x---x-8--(8)\-||
|----x-x---x---x-x-x---x---x-6--(6)\-||
                                 I'm             
w/Rhy.Fig.1 (2 times)
                                  
doing you a favor as i'm taking all your money.                I
guess i should feel sorry, but i don't even trust me.  There's some
bad news creeping up, and you feel a sudden chill.   How do you do?
My name is trouble. I'm coming in for the kill.

Pre-chorus
    let ring.......|           let ring......|  P.M.....|
|-----------------------------|-----------------------------|
|-----------------------------|-----------------------------|
|-----------------------------|-----------------------------|
|-------------4---------------|---------4-------------------|
|---------4-------------------|-----4-----------------------|
|----2-------------2--3^2-0---|2----------2-----2-2-3-2-0---|
                   In for the     kill

    let ring.........|          let ring|
|---------------------------------|---------------------------|
|---------------------------------|---------------------------|
|--------------6------------------|----4----------------------|
|---------6-----------------------|----4-----------2----------|
|----4---------------4----5^4^0-2-|(2)---5-4-2-0---0--5-4-0---|
|---------------------------------|---------------------------|
               Ooh   and you know I will          ooh.


Chorus
Rhy.Fig.2
     let ring....................| let ring..................|
|----------------0--------------0-|------------0------------0--|
|--------------------3------------|----------------3-----------|
|----------1---------------1------|------2-------------2-------|
|----2----------------------------|0---------------------------|
|---------------------------------|----------------------------|
|---------------------------------|----------------------------|
     Set the ball arollin', I'll be clicking off the miles on the

                                              (end Rhy.Fig.2)
|-------------------------------|---------------------------|
|-------------------------------|---------------------------|
|-------------------------------|------------------------2--|
|--------2----5--------4----7---|-----2---5-----------------|
|---3-------------5-------------|3-----------0------4-------|
|-------------------------------|---------------------------|
    train of consequenses   my boxcar   life o' style.   My

=>w/Rhy.Fig.2

thinking is derailed, I'm tied up to the tracks.         The
train of consequences, there ain't no turning back,  oh!

=>Rhy.Fig.1

=>2.verse   w/Rhy.Fig.1 (2 times)

No horse ever ran fast as the money that you bet.
I'm blowing on my cards and I play them to my chest.
Life's fabric is corrupt, shot through with corroded thread.
As for me, I hocked my brains, packed my bags and headed west, ow!

=>2nd Pre-chorus

I hocked my brains,
headed west, oh!   

=> To chorus


Rhy.Fig.3
|--------------------------------|--------------------------------|
|--------------------------------|--------------------------------|
|--------------------------------|--------------------------------|
|---0^2-x-x-3^2^0-2--------0--2--|--------------7---7-7-7-7-6-5---|
|---------------------2~~~~------|3^5-------3/7-----------------7-|
|--------------------------------|----0^3^5-----------------------|

                                              
|--------------------------------|-----------------------------12-------|
|--------------------------------|12~~~~~~~~~~~15b17--(15)~~~~~---15-12-|
|--------------------------------|--------------------------------------|
|--------------------------------|--------------------------------------|
|--------------------------------|--------------------------------------|
|--------------------------------|--------------------------------------|
|                                                           
|                                                         (end Rhy.Fig.3)
|--------------------------------|--------------------------------------|
|--------------------------------|--------------------------------------|
|--------------------------------|--------------------------------------|
|------------------2-------------|5-------5--------------------2--------|
|----3---x-x-3^0---0---2----5-7--|3---x-x-3^0---0---------3-------------|
|----------------3-----0----3-5--|------------3-----3b5-----------------|


Guitar solo
w/Rhy.Fig.3 (3 times)
|----------------------12-------|------------------------------------------|
|----15b17~~~~~~~~~~~~~---14^12-|------------------------------14-12-------|
|-------------------------------|14b16--(16)r(14)^12-14~~~~~~~~------14-12-|      
|-------------------------------|------------------------------------------|
|-------------------------------|------------------------------------------|
|-------------------------------|------------------------------------------|

|--------------------------|------------------------------------0-0-|
|--------------------------|------------------------------------0-0-|
|--------------------------|----------------------------------------|
|---12^14~~~~~~~~~12\10----|----------------------------------------|
|--------------------------|12^10^12^10-12^13^12^10-----------------|
|--------------------------|------------------------12~~~(12)\------|

|---0---0-0-0---0-0-0---0-0-0---0-0-|0---10-----10-----10-10/12-10----------|
|---5---5-5-3---3-3-5---5-5/8---8-8/|10----10-----10---------------12-11-10-|
|-----------------------------------|---------------------------------------|
|-----------------------------------|---------------------------------------|
|-----------------------------------|---------------------------------------|
|-----------------------------------|---------------------------------------|

|----------------------------------------|
|----------------------------------------|
|---12/\/\/\/\/\(12)\x/12-14-15-16-15-14-|
|----------------------------------------|
|----------------------------------------|
|----------------------------------------|

|-------------------------------------------------------------------|
|-------------------------------------------------------------------|
|-12-14-15-16-15-14-12-----14b16r14^12----14-12~~~~~~~~~~~~12-14b16-|
|-----------------------14-------------14---------------------------|
|-------------------------------------------------------------------|
|-------------------------------------------------------------------|

|---------------------12----------------------12-------------------|
|------12-15-------12----------12-15-------12----------12-15-------|
|--(16)------14b16-------14b16-------14b16-------14b16-------14b16-|
|------------------------------------------------------------------|
|------------------------------------------------------------------|
|------------------------------------------------------------------|

|-------12----------------12-------------15b17~~~~~~~~~~15-14--|
|-12^15----15-12----12^15----15-12----12-----------------------|
|----------------14----------------14--------------------------|
|--------------------------------------------------------------|
|--------------------------------------------------------------|
|--------------------------------------------------------------|

|---15~~~~15~~~~~~(15)\---------|---------14-15--17^15-14--15--17--19^17-15-
|-------------------------------|------17-----------------------------------
|-------------------------------|---16--------------------------------------
|-------------------------14-16-|17-----------------------------------------
|-------------------------------|-------------------------------------------
|-------------------------------|-------------------------------------------

-17--19-20--22-|
---------------|
---------------|
---------------|
---------------|
---------------|

=>chorus
  w/Rhy.Fig.2 (4 times)


=>Outro
  w/Rhy.Fig.1



--
                                       ?
                                   ?  ,,,  ?
                                     (@ @)  
        -------------------------oOO--(_)--OOo-------------------------
        Toni Myrberg,  Annalankatu 11d46,  33710 Tampere,   931-3160268
	"Aarrgh! Astuin miinaan. Parasta p|tki{ pakoon."-Korkeaj{nnitys
	---------------------------------------------------------------

Comments