Megadeth - Time The End Chords & Tabs

 

Time The End Chords & Tabs

Megadeth Chords & Tabs

Version: 1 Type: Tab 0 ratings
1 star 2 stars 3 stars 4 stars 5 stars
comments

Time The End Tab

                        "Time: The End"
                              BY
                           MEGADETH 

If you have any questions or comments send it to: 
"megamustain@hotmail.com"

-----------------------------------------------------------------------------
Explanations:  h - hammer on
               b - bend
-----------------------------------------------------------------------------
     
 Tune Normal A-flat....

 Verse
 ----- 
[ Tab from: http://www.guitartabs.cc/tabs/m/megadeth/time_the_end_tab.html ]
|-----------------------------------------------------------|------------||
|-----------------------------------------------------------|------------||
|-----------------------------------------------------------|------------||
|--5/8--------------------------5/8-----8/9-----------------|------------||
|--6/7-----2--2-----------------6/7-----9/10----------------|-5--4--0-0--||
|------0-0-3b-0-0-0-0-0-0-0-0-0-----0-0------0-0-0-0-0-0-0--|-3--2--2-2--||


Chours (Beat The Clock)
------ 

|-------------------||
|-------------------||
|-2----4----5----7--||
|-2----4----5----7--||
|-0----2----3----5--||
|-------------------||


Outro
-----

|-------------------------||
|-------------------------||
|--9---7-7-7---2---5-5-5--||
|--9---7-7-7---2---5-5-5--||  Play 4x
|--7---5-5-5---0---3-3-3--||
|-------------------------||

|-------------------------|---------------------||
|-------------------------|---------------------||
|--9---7-7-7---6---5-5-5--|--4---7-7-7---6---5--||
|--9---7-7-7---6---5-5-5--|--4---7-7-7---6---5--||  
|--7---5-5-5---4---3-3-3--|--2---5-5-5---4---3--||
|-------------------------|---------------------||
Comments