Megadeth - Time The Beginning Chords & Tabs

 

Time The Beginning Chords & Tabs

Megadeth Chords & Tabs

Version: 1 Type: Tab 0 ratings
1 star 2 stars 3 stars 4 stars 5 stars
comments

Time The Beginning Tab

   
                     "Time: The Beginning"
                              BY
                           MEGADETH 

So here you got the tab to Time: The Beginning
It was hard to hear all parts... but I hope
I got mostley of them right.

If you have any questions or comments send it to: 
"megamustain@hotmail.com"

-----------------------------------------------------------------------------
Explanations:  h - hammer on
               b - bend
-----------------------------------------------------------------------------     

 Tune Normal A-flat....

 Song Structure
 --------------
 Riff A, Riff B, Riff C
 Riff A, Riff B, Riff D, Riff E, Riff C
 Riff A, Riff B, Riff D, "Time: The End"


|--Riff A--|
|--------------------------------------------------------||
|--------------------------------------------------------||
|-2-0-0--0-0-0-0--2-0-0--0-0-0-0--2-0-0--0-0-0-0--0-0-0--||
|-2-2-2--2-2-2-2--2-2-2--2-2-2-2--2-2-2--2-2-2-2--2-2-2--||
|-2-2-2--2-2-2-2--2-2-2--2-2-2-2--2-2-2--2-2-2-2--2-2-2--||
|--------0-0-0-0---------0-0-0-0---------0-0-0-0---------|| Repeat 


[ Tab from: http://www.guitartabs.cc/tabs/m/megadeth/time_the_beginning_tab.html ]
|--Riff B--|
|---------------------------||
|---------------------------||
|--5-5/---------5-5/--------||
|--5-5/---9-9---5-5/---9-9--||
|--3-3/---6-6---3-3/---6-6--||
|---------7-7----------7-7--||
|
|
|-Guitar 2-|
|-------8------------8------||
|-----8------------8--------||
|---5------------5----------||
|---------------------------||
|---------------------------||
|---------------------------||

|--Riff C--|
|----------------------------------------0---||
|-------------------------------------0------||
|-------2--------0--------2--------0---------||
|----2--------2--------2--------2------------||
|--------------------------------------------||
|-0--------0--------0--------0---------------|| Repeat


|--Riff D--|
|-------3-------3-------3-------3--------------------------------||
|-----0-------0-------0-------0---------0----------0-------0-----||
|---0-------0-------0-------0---------0----------0-------0-------||
|---------2-------4-------5---------2----------2-------2---------||
|---------------------------------3--------2-0-------------------||
|-0-------------------------------------------------2-------3-2--||


|-Riff E--|
|-----5---||
|-0---5---||
|-0---2---||
|-2---2---||
|-0---0---||
|---------||
Comments