Megadeth - The Disintegrators Chords & Tabs

 

The Disintegrators Chords & Tabs

Megadeth Chords & Tabs

Version: 2 Type: Bass Tab 0 ratings
1 star 2 stars 3 stars 4 stars 5 stars
comments

The Disintegrators Bass Tab

Megadeth
Bass Tab for The Disintegrators
Transcribed by Mark Smeets
Email: msmeets@ibm.net
http://www.smartt.com/~jsmeets/stranger/Front.htm

Notes: Nothing fancy although, unless your gifted with a fast right hand, 
grab your pick. If you can't hear the rythm very well, listen to some classic
Iron Maiden songs (like The Trooper From Piece Of Mind) There is some 
similiar galloping rythms in this song.

Standard Tuning

Intro

I--------------------------------I
I--------------------------------I
I-3333--3333--3-5--3333-3333-5---I
I-----------------------------3--I

Verse 1

I--------------------------------------------------------------
I--------------------------------------------------------------
I-00000-00000-33333-33333-55555-55555-00000-00000--00000-00000-
I--------------------------------------------------------------

--------------------------------------I
--------------------------------------I
-33333-33333-55555-55653-00000-00000--I
--------------------------------------I

Verse 2 - You can add a bit of a percussive feel to the open strings 
as done in the song but do not mute the note that much.

Repeat twice
I-------------------------------------------------I
I-------------------------------------------------I
I---------0---0-0000000000--------0-0-0000000000--I
I-2-2-2-2---2--------------2-2-2-2-2--------------I

Pre-chorus 1

I---------------------------------------------------------------
I---------------------------------------------------------------
I------------55555-55555----------------------------------------
I-00000-00000-----------33333-33333-0-3-5-55555-56-700000-00000-

------------------------------------------I
------------------------------------------I
-55555-55555------------------------------I
------------33333-33333-0-3-5-55555-56-7--I

Chorus

I-------------------------------------------------------------
I-------------------------------------------------------------
I-77777-77777-55555-55555-44444-44444-33333-33333-5-6-7-77777-
I-------------------------------------------------------------

------------------------------I
------------------------------I
-55555-55555-3333--3333--3-5--I
------------------------------I

Solo 1

I---------------------------------------------------------------
I---------------------------------------------------------------
I------------55555-55555----------------------------------------
I-00000-00000-----------33333-33333-0-3-5-55555-56-700000-00000-

------------------------------------------I
------------------------------------------I
-55555-55555------------------------------I
------------33333-33333-0-3-5-55555-56-7--I

[ Tab from: http://www.guitartabs.cc/tabs/m/megadeth/the_disintegrators_btab_ver_2.html ]
Verse 3 - You can add a bit of a percussive feel to the open strings 
as done in the song but do not mute the note that much.

Repeat twice
I-------------------------------------------------I
I-------------------------------------------------I
I---------0---0-0000000000--------0-0-0000000000--I
I-2-2-2-2---2--------------2-2-2-2-2--------------I

Pre-chorus 1

I---------------------------------------------------------------
I---------------------------------------------------------------
I------------55555-55555----------------------------------------
I-00000-00000-----------33333-33333-0-3-5-55555-56-700000-00000-

------------------------------------------I
------------------------------------------I
-55555-55555------------------------------I
------------33333-33333-0-3-5-55555-56-7--I

Chorus

I-----------------------------------------------------------
I-----------------------------------------------------------
I-77777-77777-55555-55555-44444-44444-33333-33333-5-7-77777-
I-----------------------------------------------------------

------------------------------I
------------------------------I
-55555-55555-3333--3333--3-5--I
------------------------------I


Pre-chorus 2

I-------------------------------------------------------
I-------------------------------------------------------
I-0-0-0-00000000--0-0-0-00000000--0-0-0-00000000--0-0-0-
I-------------------------------------------------------

---------------------------I
---------------------------I
-00000000-3-5-6-0-0-0-0----I
------------------------3--I

Pre-Chorus 1/Solo 2

I----------------------------------------------------------
I----------------------------------------------------------
I------------55555-55555-----------------------------------
I-00000-00000-----------33333-33333-0-3-5-55555-56-7-00000-

------------------------------------------------I
------------------------------------------------I
------55555-55555-------------------------------I
-00000------------33333-33333-0-3-5-55555-56-7--I

Chorus

I----------------------------------------------------------
I----------------------------------------------------------
I-------------55555-55555-44444-44444-33333-33333-5-7------
I-00000-00000----------------------------------------00000-

----------------------------I
----------------------------I
-55555-55555-33333333--3-5--I
----------------------------I

I----------------------------------------------------------
I----------------------------------------------------------
I-------------55555-55555-44444-44444-33333-33333-5-7------
I-00000-00000----------------------------------------00000-

--------------------------------------------------------I
--------------------------------------------------------I
55555-55555-44444-44444-3333--3333--3-5--3333-3333-3-0--I
----------------------------------------------------3---I


Comments