Megadeth - The Conjuring Chords & Tabs

 

The Conjuring Chords & Tabs

Megadeth Chords & Tabs

Version: 1 Type: Tab 0 ratings
1 star 2 stars 3 stars 4 stars 5 stars
comments

The Conjuring Tab

   
Megadeth
The Conjuring                                  


Gtr I (Eb Ab Db Gb Bb Eb) - 'Mustaine Rhy.'
Gtr II (Eb Ab Db Gb Bb Eb) - 'Poland Rhy.'
Gtr III (Eb Ab Db Gb Bb Eb) - 'Solo Gtr.'

   Intro
    Moderately Q=147
    G5                                  F#5
   4/4
    Gtr I
                  T   T  T  T  T  T                   T   T  T  T  T  T
||------------|-----------------------|-----------|------------------------|
||o-----------|---------20-------20---|-----------|---------19-------19----|
||--12--------|------19----19---------|-11--------|------18----18----------|
||--12--------|--17-----------17------|-11--------|--16-----------16-------|
||o-10--------|-----------------------|--9--------|------------------------|
||------------|-----------------------|-----------|------------------------|
|
|   Gtr II
||------------|-----------------------|-----------|------------------------|
||o-----------|-----------------------|-----------|------------------------|
||------------|-----------------------|-----------|------------------------|
||--12--------|-(12)------------------|-11--------|-(11)-------------------|
||o-10--------|-(10)------------------|--9--------|--(9)-------------------|
||------------|-----------------------|-----------|------------------------|


  F5                                  E5
                T   T  T  T  T  T                 T   T  T  T  T  T
|-----------|-----------------------|----------|-----------------------||
|-----------|---------18-------18---|----------|--------17-------17---o||
|-10--------|------17----17---------|-9--------|-----16----16----------||
|-10--------|--15-----------15------|-9--------|-14-----------14-------||
|--8--------|-----------------------|-7--------|----------------------o||
|-----------|-----------------------|----------|-----------------------||
|
|-----------|-----------------------|----------|-----------------------||
|-----------|-----------------------|----------|----------------------o||
|-----------|-----------------------|----------|-----------------------||
|-10--------|-(10)------------------|-9--------|-(9)-------------------||
|--8--------|--(8)------------------|-7--------|-(7)------------------o||
|-----------|-----------------------|----------|-----------------------||


   1st Verse
    G5                                  F#5
                  T   T  T  T  T  T                   T   T  T  T  T  T
||------------|-----------------------|-----------|-----------------------|
||o-----------|---------20-------20---|-----------|---------19-------19---|
||--12--------|------19----19---------|-11--------|------18----18---------|
||--12--------|--17-----------17------|-11--------|--16-----------16------|
||o-10--------|-----------------------|--9--------|-----------------------|
||------------|-----------------------|-----------|-----------------------|
|
||------------|-----------------------|-----------|-----------------------|
||o-----------|-----------------------|-----------|-----------------------|
||------------|-----------------------|-----------|-----------------------|
||--12--------|-(12)------------------|-11--------|-(11)------------------|
||o-10--------|-(10)------------------|--9--------|--(9)------------------|
||------------|-----------------------|-----------|-----------------------|


  F5
                T   T  T  T  T  T
|-----------|-----------------------|
|-----------|---------18-------18---|
|-10--------|------17----17---------|
|-10--------|--15-----------15------|
|--8--------|-----------------------|
|-----------|-----------------------|
|
|-----------|-----------------------|
|-----------|-----------------------|
|-----------|-----------------------|
|-10--------|-(10)------------------|
|--8--------|--(8)------------------|
|-----------|-----------------------|


  E5
              T   T  T  T  T  T
|----------|-----------------------||----------||
|----------|--------17-------17---o||----------||
|-9--------|-----16----16----------||-9--------||
|-9--------|-14-----------14-------||-9--------||
|-7--------|----------------------o||-7--------||
|----------|-----------------------||----------||
|
|----------|-----------------------||----------||
|----------|----------------------o||----------||
|----------|-----------------------||----------||
|-9--------|-(9)-------------------||-9--------||
|-7--------|-(7)------------------o||-7--------||
|----------|-----------------------||----------||


 Breakdown
  Faster Q=154
  A5                                                    E5 A5
      PM----------------------|           PM----------|
|-------------------------------|----------------------------|
|-------------------------------|----------------------------|
|-------------------------------|----------------------------|
|-2-----------------------------|--------------------------2-|
|-0-----------------------------|-2h3p2p0---------------2--0-|
|---2-2-2-2-2-2-0-0-2-2-2-2-2-2-|---------2-2-2-2-2-2-0-0----|
|
|     PM----------------------|           PM----------|
|-------------------------------|----------------------------|
|-------------------------------|----------------------------|
|-------------------------------|----------------------------|
|-2-----------------------------|--------------------------2-|
|-0-----------------------------|-2h3p2p0---------------2--0-|
|---2-2-2-2-2-2-0-0-2-2-2-2-2-2-|---------2-2-2-2-2-2-0-0----|


        PM----------------------|
|----------------------------------|
|----------------------------------|
|----------------------------------|
|-(2)------------------------------|
|-(0)------------------------------|
|-----2-2-2-2-2-2-0-0-2-2-2-2-2-2--|
|
|       PM----------------------|
|----------------------------------|
|----------------------------------|
|----------------------------------|
|-(2)------------------------------|
|-(0)------------------------------|
|-----2-2-2-2-2-2-0-0-2-2-2-2-2-2--|


                        E5 A5
          PM----------|              PM----------------------|
|----------------------------|---------------------------------|
|----------------------------|---------------------------------|
|----------------------------|---------------------------------|
|--------------------------2-|-(2)-----------------------------|
|-2h3p2p0---------------2--0-|-(0)-----------------------------|
|---------2-2-2-2-2-2-0-0----|-----2-2-2-2-2-2-0-0-2-2-2-2-2-2-|
|
|         PM----------|              PM----------------------|
|----------------------------|---------------------------------|
|----------------------------|---------------------------------|
|----------------------------|---------------------------------|
|--------------------------2-|-(2)-----------------------------|
|-2h3p2p0---------------2--0-|-(0)-----------------------------|
|---------2-2-2-2-2-2-0-0----|-----2-2-2-2-2-2-0-0-2-2-2-2-2-2-|


                        E5 A5
          PM----------|
|------------------------------|
|------------------------------|
|------------------------------|
|--------------------------2---|
|-2h3p2p0---------------2--0---|
|---------2-2-2-2-2-2-0-0------|
|
|         PM----------|
|------------------------------|
|------------------------------|
|------------------------------|
|--------------------------2---|
|-2h3p2p0---------------2--0---|
|---------2-2-2-2-2-2-0-0------|


                              Gtr III
        PM------|     PM----|
|-----------------------------12-12-|
|-----------------------------------|
|-----------------------------------|
|-(2)-------------------------------|
|-(0)-------------------------------|
|-----2-2-2-2-2-2-0h2-2-2-2-2-------|
|
|       PM-----------------------|
|-----------------------------------|
|-----------------------------------|
|-----------------------------------|
|-(2)-------------------------------|
|-(0)-------------------------------|
|-----2-2-2-2-2-2-0-0-2-2-2-2--2--2-|


  E5
|-17p15p12-----------------------------------------------------||
|-----------17p15p=12----------17p15p12------------------------||
|---------------------15p14p12----------15p14p===12------------||
|---------------------------------------------------15p14p12---||
|--------------------------------------------------------------||
|--------------------------------------------------------------||
|
|--------------------------------------------------------------||
|--------------------------------------------------------------||
|--------------------------------------------------------------||
|--------------------------------------------------------------||
|--2-----------------------------------------------------------||
|--0------------------------------------------5\---------------||


 Guitar Solo
  Slightly slower Q=149
  E5
|-14h15p14p12-14p12----12-14h15p14p12-14p12----12-|
|-------------------15----------------------15----|
|-------------------------------------------------|
|-------------------------------------------------|
|-------------------------------------------------|
|-------------------------------------------------|
|
| Gtr II
|           PM-------------------------------------
|-------------------------------------------------|
|-------------------------------------------------|
|-------------------------------------------------|
|-------------------------------------------------|
|--2----------------------------------------------|
|--0-----0--0--0-----0--0--0-----0--0--0-----0--0-|
|
| Gtr I
|-------------------------------------------------|
|-------------------------------------------------|
|-------------------------------------------------|
|-12----------------------------------------------|
|-10----------------------------------------------|
|-------------------------------------------------|


                      Bb5         A5          Eb5
|--14h=15p14p12-15h17p15p12-14h15p14p12-14p12----12-|
|---------------------------------------------15----|
|---------------------------------------------------|
|---------------------------------------------------|
|---------------------------------------------------|
|---------------------------------------------------|
|
|---------------|            PM          PM
|---------------------------------------------------|
|---------------------------------------------------|
|---------------------------------------------------|
|---------------------15----------14-----------8----|
|---------------------13----------12-----------6----|
|---0------0--0--0-----------0-----------0----------|
|
|---------------------------------------------------|
|---------------------------------------------------|
|---------------------------------------------------|
|-(12)----------------------------------------------|
|-(10)----------------------------------------------|
|---------------------------------------------------|


  E5
|-14h15p14p=12-14p12----12-14h15p14p12-14p12----12-|
|--------------------15----------------------15----|
|--------------------------------------------------|
|--------------------------------------------------|
|--------------------------------------------------|
|--------------------------------------------------|
|
|            PM-------------------------------------
|--------------------------------------------------|
|--------------------------------------------------|
|--------------------------------------------------|
|--9----(9)----------------------------------------|
|--7----(7)----------------------------------------|
|------------0--0-----0--0--0-----0--0--0-----0--0-|
|
|--------------------------------------------------|
|--------------------------------------------------|
|--------------------------------------------------|
|-11-----------------------------------------------|
|--9-----------------------------------------------|
|--------------------------------------------------|


                B5                      F5
|----------------------------------------------------|
|--15h=16p15p12-15p12----12--------------------------|
|---------------------15----15p14p12----14b16==(14)r-|
|------------------------------------14--------------|
|----------------------------------------------------|
|----------------------------------------------------|
|
|------------|               PM------|
|----------------------------------------------------|
|----------------------------------------------------|
|----------------------------------------------------|
|----------------4-----------------------------------|
|----------------2-----------------------3-----------|
|---0------0--0--------------0-----0--0--1-----------|
|
|----------------------------------------------------|
|----------------------------------------------------|
|----------------------------------------------------|
|-(11)-----------------------------------------------|
|--(9)-----------------------------------------------|
|----------------------------------------------------|


  E5
|-14h15p14p12-14p12----12-14h15p14p12-14p12----12-|
|-------------------15----------------------15----|
|-------------------------------------------------|
|-------------------------------------------------|
|-------------------------------------------------|
|-------------------------------------------------|
|
|        PM----------------------------------------
|-------------------------------------------------|
|-------------------------------------------------|
|-------------------------------------------------|
|-------------------------------------------------|
|--2----------------------------------------------|
|--0-----0--0--0-----0--0--0-----0--0--0-----0--0-|
|
|-------------------------------------------------|
|-------------------------------------------------|
|-------------------------------------------------|
|-10----------------------------------------------|
|--8----------------------------------------------|
|-------------------------------------------------|


                      Bb5         A5          Eb5
|--14h=15p14p12-15h17p15p12-14h15p14p12-14p12----12-|
|---------------------------------------------15----|
|---------------------------------------------------|
|---------------------------------------------------|
|---------------------------------------------------|
|---------------------------------------------------|
|
|---------------|            PM          PM
|---------------------------------------------------|
|---------------------------------------------------|
|---------------------------------------------------|
|---------------------15----------14-----------8----|
|---------------------13----------12-----------6----|
|---0------0--0--0-----------0-----------0----------|
|
|---------------------------------------------------|
|---------------------------------------------------|
|---------------------------------------------------|
|-(10)----------------------------------------------|
|--(8)----------------------------------------------|
|---------------------------------------------------|


  E5
|-14h15p14p=12-14p12----12-14h15p14p12-14p12----12-|
|--------------------15----------------------15----|
|--------------------------------------------------|
|--------------------------------------------------|
|--------------------------------------------------|
|--------------------------------------------------|
|
|            PM-------------------------------------
|--------------------------------------------------|
|--------------------------------------------------|
|--------------------------------------------------|
|--9----(9)----------------------------------------|
|--7----(7)----------------------------------------|
|------------0--0-----0--0--0-----0--0--0-----0--0-|
|
|--------------------------------------------------|
|--------------------------------------------------|
|--------------------------------------------------|
|--9-----------------------------------------------|
|--7-----------------------------------------------|
|--------------------------------------------------|


               B5                      F5
|---------------------------------------------------------|
|-15h=16p15p12-15p12----12--------------------------12-12-|
|--------------------15----15p14p12----14b16==(14)r-------|
|-----------------------------------14--------------------|
|---------------------------------------------------------|
|---------------------------------------------------------|
|
|-----------|               PM------|
|---------------------------------------------------------|
|---------------------------------------------------------|
|---------------4-----------------------------------------|
|---------------4-----------------------3-----------------|
|---------------2-----------------------3-----------------|
|--0------0--0--------------0-----0--0--1-----------------|
|
|---------------------------------------------------------|
|---------------------------------------------------------|
|---------------------------------------------------------|
|-(9)-----------------------------------------------------|
|-(7)-----------------------------------------------------|
|---------------------------------------------------------|


  E5
|-12----------------------------------------------|
|----15p12----12h15p12----12----------------------|
|----------15----------15----15p14p12-15p14p12----|
|----------------------------------------------14-|
|-------------------------------------------------|
|-------------------------------------------------|
|
|           PM-------------------------------------
|-------------------------------------------------|
|-------------------------------------------------|
|-------------------------------------------------|
|-------------------------------------------------|
|--2----------------------------------------------|
|--0-----0--0--0-----0--0--0-----0--0--0-----0--0-|
|
|-------------------------------------------------|
|-------------------------------------------------|
|-------------------------------------------------|
|-12----------------------------------------------|
|-10----------------------------------------------|
|-------------------------------------------------|


                      Bb5         A5          Eb5
|---------------------------------------------------|
|---------------------------------------------------|
|--14p=12-------12----------------------------------|
|---------14p12----14p12----14p12-------12----12h14-|
|------------------------14-------14p12----14-------|
|---------------------------------------------------|
|
|---------------|            PM          PM
|---------------------------------------------------|
|---------------------------------------------------|
|---------------------------------------------------|
|---------------------15----------14-----------8----|
|---------------------13----------12-----------6----|
|---0------0--0--0-----------0-----------0----------|
|
|---------------------------------------------------|
|---------------------------------------------------|
|---------------------------------------------------|
|-(12)----------------------------------------------|
|-(10)----------------------------------------------|
|---------------------------------------------------|


  E5
|-12-----------------------------------------------|
|----15p12-----15p12-------12----------------------|
|-----------15-------15p14----15p14p12-15p14p12----|
|-----------------------------------------------14-|
|--------------------------------------------------|
|--------------------------------------------------|
|
|            PM-------------------------------------
|--------------------------------------------------|
|--------------------------------------------------|
|--------------------------------------------------|
|--9----(9)----------------------------------------|
|--7----(7)----------------------------------------|
|------------0--0-----0--0--0-----0--0--0-----0--0-|
|
|--------------------------------------------------|
|--------------------------------------------------|
|--------------------------------------------------|
|-11-----------------------------------------------|
|--9-----------------------------------------------|
|--------------------------------------------------|


                B5                      F5
|---------------------------------------------------|
|---------------------------------------------------|
|--14p=12-------12----------------------------------|
|---------14p12----14p12----14p12-------12----12h14-|
|------------------------14-------14p12----14-------|
|---------------------------------------------------|
|
|------------|               PM------|
|---------------------------------------------------|
|---------------------------------------------------|
|---------------------------------------------------|
|----------------4----------------------------------|
|----------------2-----------------------3----------|
|---0------0--0--------------0-----0--0--1----------|
|
|---------------------------------------------------|
|---------------------------------------------------|
|---------------------------------------------------|
|-(11)----------------------------------------------|
|--(9)----------------------------------------------|
|---------------------------------------------------|


  E5
|-12-7-7-7-10-7-12-7-7-7-10-7-12-7-7-7-|
|--------------------------------------|
|--------------------------------------|
|--------------------------------------|
|--------------------------------------|
|--------------------------------------|
|
|      PM-------------------------------
|--------------------------------------|
|--------------------------------------|
|--------------------------------------|
|--------------------------------------|
|--2-----------------------------------|
|--0---0-0--0----0-0-0----0-0--0---0-0-|
|
|--------------------------------------|
|--------------------------------------|
|--------------------------------------|
|-10-----------------------------------|
|--8-----------------------------------|
|--------------------------------------|


                  Bb5      A5        Eb5
|--12--7-7-7-10-7-12-7-7-7-10-7h10p7h10p7h10--|
|---------------------------------------------|
|---------------------------------------------|
|---------------------------------------------|
|---------------------------------------------|
|---------------------------------------------|
|
|------------|         PM        PM
|---------------------------------------------|
|---------------------------------------------|
|---------------------------------------------|
|-----------------15-------14-----------8-----|
|-----------------13-------12-----------6-----|
|---0----0-0--0--------0---------0------------|
|
|---------------------------------------------|
|---------------------------------------------|
|---------------------------------------------|
|-(10)----------------------------------------|
|--(8)----------------------------------------|
|---------------------------------------------|


  E5
|-19p15p12----------12-19p15p12--------12-19p15p12--------12-19p15p12--------12-|
|--------------12-----------------12-----------------12-----------------12------|
|-------------------------------------------------------------------------------|
|-------------------------------------------------------------------------------|
|-------------------------------------------------------------------------------|
|-------------------------------------------------------------------------------|
|
|                 PM-------------------------------------------------------------
|-------------------------------------------------------------------------------|
|-------------------------------------------------------------------------------|
|-------------------------------------------------------------------------------|
|--9-------(9)------------------------------------------------------------------|
|--7-------(7)------------------------------------------------------------------|
|-----------------0-----0-------0----0-----0-------0----0-----0-------0----0----|
|
|-------------------------------------------------------------------------------|
|-------------------------------------------------------------------------------|
|-------------------------------------------------------------------------------|
|--9----------------------------------------------------------------------------|
|--7----------------------------------------------------------------------------|
|-------------------------------------------------------------------------------|


                      B5                                F5
|-19p=15p12--------12-19p15p12----12-19p15p12--------12-19p15-15----15--||
|-------------12---------------12---------------12---------------15-----||
|-----------------------------------------------------------------------||
|-----------------------------------------------------------------------||
|-----------------------------------------------------------------------||
|-----------------------------------------------------------------------||
|
|----------------|                    PM-----------|
|-----------------------------------------------------------------------||
|-----------------------------------------------------------------------||
|-----------------------------------------------------------------------||
|----------------------4------------------------------------------------||
|----------------------2---------------------------------3--------------||
|--0--------0----0--------------------0-------0----0-----1--------------||
|
|-----------------------------------------------------------------------||
|-----------------------------------------------------------------------||
|-----------------------------------------------------------------------||
|-(9)-------------------------------------------------------------------||
|-(7)-------------------------------------------------------------------||
|-----------------------------------------------------------------------||


 2nd Verse
  Faster Q=152
  N.C.(F#)
|--------------------------------------------------|
|-17b19==(17)-------(17)r-x---(x)\-----------------|
|-------------------------x---(x)\-----------------|
|--------------------------------------------------|
|--------------------------------------------------|
|--------------------------------------------------|
|
|--------------------------------------------------|
|--------------------------------------------------|
|--------------------------------------------------|
|--------------------------------------------------|
|----------------------------------------0h2h3p2p0-|
|--0h======2--2-2-5---2---2-2--0h==2-2-2-----------|
|
|--------------------------------------------------|
|--------------------------------------------------|
|--------------------------------------------------|
|--------------------------------------------------|
|----------------------------------------0-2h3p2p0-|
|--0h======2--2-2-5---2---2-2--0h==2-2-2-----------|


|-----------------------------------|
|-----------------------------------|
|-----------------------------------|
|-----------------------------------|
|-----------------------------------|
|-----------------------------------|
|
|-----------------------------------|
|-----------------------------------|
|-----------------------------------|
|-----------------------------------|
|-------------------------0h2h3p2p0-|
|-0h2-2-2-5-2-2-2-0h2-2-2-----------|
|
|-----------------------------------|
|-----------------------------------|
|-----------------------------------|
|-----------------------------------|
|-------------------------0-2h3p2p0-|
|-0h2-2-2-5-2-2-2-0h2-2-2-----------|

[ Tab from: http://www.guitartabs.cc/tabs/m/megadeth/the_conjuring_tab.html ]
    N.C.(F#)
    Gtr I
||------------------------------------|
||o-----------------------------------|
||------------------------------------|
||------------------------------------|
||o-------------------------0h2h3p2p0-|
||--0h2-2-2-5-2-2-2-0h2-2-2-----------|
|
|   Gtr II
||------------------------------------|
||o-----------------------------------|
||------------------------------------|
||------------------------------------|
||o-------------------------0h2h3p2p0-|
||--0h2-2-2-5-2-2-2-0h2-2-2-----------|


 1.,2.                                 3.
                                                                B5
                                     3x
|------------------------------------||------------------------------||
|-----------------------------------o||------------------------------||
|------------------------------------||------------------------------||
|------------------------------------||-------------------------4----||
|-------------------------0h2h3p2p0-o||-------------------------2----||
|-0h2-2-2-5-2-2-2-0h2-2-2------------||-0h2-2-2-5-2-2-2-0h2-2-2------||
|
|                                    3x
|------------------------------------||------------------------------||
|-----------------------------------o||------------------------------||
|------------------------------------||------------------------------||
|------------------------------------||-------------------------4----||
|-------------------------0h2h3p2p0-o||-------------------------2----||
|-0h2-2-2-5-2-2-2-0h2-2-2------------||-0h2-2-2-5-2-2-2-0h2-2-2------||


   Breakdown
    N.C.(E)                           Bb5  A5   Eb5
    PM------------------------------|    PM   PM
||--------------------------|---------------------|
||o-------------------------|---------------------|
||--------------------------|---------------------|
||--------------------------|---------15---14---8-|
||o-------------------------|---------13---12---6-|
||--0-0-0-0-0-0-0-0-0-0-0-0-|-0-0-0-0----0----0---|
|
|   PM------------------------------|    PM   PM
||--------------------------|---------------------|
||o-------------------------|---------------------|
||--------------------------|---------------------|
||--------------------------|---------15---14---8-|
||o-------------------------|---------13---12---6-|
||--0-0-0-0-0-0-0-0-0-0-0-0-|-0-0-0-0----0----0---|


  E5     G5E5              B5       F5
                ~    PM--|    PM--|
|------------------|---------------------||
|-------------5----|--------------------o||
|---------------5--|---------------------||
|-9-(9)\-----------|-------4-------------||
|-7-(7)\-5-2-------|-------2--------3---o||
|--------3-0-------|-0-0-0----0-0-0-1----||
|
|               ~    PM--|    PM--|
|------------------|---------------------||
|---------------7--|--------------------o||
|-------------9----|---------------------||
|-9-(9)\-----------|-------4-------------||
|-7-(7)\-5-2-------|-------2--------3---o||
|--------3-0-------|-0-0-0----0-0-0-1----||


   3rd Verse
    Slight accel Q=153
    N.C.(F#)
||------------------------------------|
||o-----------------------------------|
||------------------------------------|
||------------------------------------|
||o-------------------------0h2h3p2p0-|
||--0h2-2-2-5-2-2-2-0h2-2-2-----------|
|
||------------------------------------|
||o-----------------------------------|
||------------------------------------|
||------------------------------------|
||o-------------------------0h2h3p2p0-|
||--0h2-2-2-5-2-2-2-0h2-2-2-----------|


 1.,2.,3.                              4.
                                                                B5
                                     4x
|------------------------------------||------------------------------||
|-----------------------------------o||------------------------------||
|------------------------------------||------------------------------||
|------------------------------------||-------------------------4----||
|-------------------------0h2h3p2p0-o||-------------------------2----||
|-0h2-2-2-5-2-2-2-0h2-2-2------------||-0h2-2-2-5-2-2-2-0h2-2-2------||
|
|                                    4x
|------------------------------------||------------------------------||
|-----------------------------------o||------------------------------||
|------------------------------------||------------------------------||
|------------------------------------||-------------------------4----||
|-------------------------0h2h3p2p0-o||-------------------------2----||
|-0h2-2-2-5-2-2-2-0h2-2-2------------||-0h2-2-2-5-2-2-2-0h2-2-2------||


    accel Q=156
    N.C.(G#)
||----------------------------------|
||o---------------------------------|
||----------------------------------|
||----------------------------------|
||o-------------------------4h5p4---|
||--2h4-4-4-7-4-4-4-2h4-4-4-------7-|
|
||----------------------------------|
||o---------------------------------|
||----------------------------------|
||----------------------------------|
||o-------------------------4h5p4---|
||--2h4-4-4-7-4-4-4-2h4-4-4-------7-|


  1.,2.,3.                           4.
                                                              B5
                                   4x
|----------------------------------||--------------------------------||
|---------------------------------o||--------------------------------||
|----------------------------------||--------------------------------||
|----------------------------------||-------------------------4-(4)S=||
|-------------------------4h5p4---o||-------------------------2-(2)S=||
|-2h4-4-4-7-4-4-4-2h4-4-4-------7--||-2h4-4-4-7-4-4-4-2h4-4-4--------||
|
|                                  4x
|----------------------------------||--------------------------------||
|---------------------------------o||--------------------------------||
|----------------------------------||--------------------------------||
|----------------------------------||-------------------------4-(4)S=||
|-------------------------4h5p4---o||-------------------------2-(2)S=||
|-2h4-4-4-7-4-4-4-2h4-4-4-------7--||-2h4-4-4-7-4-4-4-2h4-4-4--------||


 Chorus
  Faster Q=166
  E5         G5Gb5      Bb5B5 D5 E5            G5Gb5      Bb5B5 D5 E5
         PM|     PM                        PM|     PM
|--------------------|-------------|-------------------|-------------|
|--------------------|-------------|-------------------|-------------|
|--------------------|-------------|-------------------|-------------|
|-9-(9)\-------------|--------7--9-|-(9)\--------------|--------7--9-|
|-7-(7)\-----5-4---4-|--8--9--5--7-|-(7)\------5-4---4-|--8--9--5--7-|
|--------0-0-3-2-0-2-|--6--7-------|-------0-0-3-2-0-2-|--6--7-------|
|
|        PM|     PM                        PM|     PM
|--------------------|-------------|-------------------|-------------|
|--------------------|-------------|-------------------|-------------|
|--------------------|-------------|-------------------|-------------|
|-9-(9)\-------------|--------7--9-|-(9)\--------------|--------7--9-|
|-7-(7)\-----5-4---4-|--8--9--5--7-|-(7)\------5-4---4-|--8--9--5--7-|
|--------0-0-3-2-0-2-|--6--7-------|-------0-0-3-2-0-2-|--6--7-------|


  accel Q=171
            G5Gb5      Bb5B5 D5 E5            G5Gb5      Bb5B5 D5 E5
        PM|     PM                        PM|     PM
|-------------------|-------------|-------------------|-------------||
|-------------------|-------------|-------------------|-------------||
|-------------------|-------------|-------------------|-------------||
|-(9)\--------------|--------7--9-|-(9)\--------------|--------7--9-||
|-(7)\------5-4---4-|--8--9--5--7-|-(7)\------5-4---4-|--8--9--5--7-||
|-------0-0-3-2-0-2-|--6--7-------|-------0-0-3-2-0-2-|--6--7-------||
|
|       PM|     PM                        PM|     PM
|-------------------|-------------|-------------------|-------------||
|-------------------|-------------|-------------------|-------------||
|-------------------|-------------|-------------------|-------------||
|-(9)\--------------|--------7--9-|-(9)\--------------|--------7--9-||
|-(7)\------5-4---4-|--8--9--5--7-|-(7)\------5-4---4-|--8--9--5--7-||
|-------0-0-3-2-0-2-|--6--7-------|-------0-0-3-2-0-2-|--6--7-------||


 Guitar Break
  Faster Q=177
  E5
|----------------------|----------------------|
|----------------------|----------------------|
|----------------------|--------------7-9-7---|
|-(9)----------7-8-9---|--------------7-9-7---|
|-(7)-7-10-9-7-7-8-9-7-|-(7)-7-10-9-7-------7-|
|-----7-10-9-7-------7-|-(7)-7-10-9-7-------7-|
|
|----------------------|----------------------|
|----------------------|----------------------|
|----------------------|----------------------|
|-(9)----------------9-|-(9)----------------9-|
|-(7)----------------7-|-(7)----------------7-|
|----------------------|----------------------|


|----------------------|----------------------|
|--------------------9-|-(9)-7b9r7---7---7--9-|
|--------------------9-|-(9)-7b9r7-9-7-9-7--9-|
|--------------7-8-9---|-----------9---9------|
|-(7)-7-10-9-7-7-8-9---|----------------------|
|-(7)-7-10-9-7---------|----------------------|
|
|----------------------|----------------------|
|----------------------|----------------------|
|----------------------|----------------------|
|-(9)------------------|----------------------|
|-(7)----------------2-|-(2)-------------2/---|
|--------------------0-|-(0)------------------|


  gradual slowdown Q=172
  E5
|--------------------|----------------------|
|--------------------|----------------------|
|--------------------|--------------7-9-7---|
|------------7-8-9---|--------------7-9-7---|
|-7-7-10-9-7-7-8-9-7-|-(7)-7-10-9-7-------7-|
|-7-7-10-9-7-------7-|-(7)-7-10-9-7-------7-|
|
|--------------------|----------------------|
|--------------------|----------------------|
|--------------------|----------------------|
|-9----------------9-|-(9)----------------9-|
|-7----------------7-|-(7)----------------7-|
|--------------------|----------------------|


                     E
|----------------------|---------------------|
|--------------------9-|-(9)-7b9r7---7---7/--|
|--------------------9-|-(9)-7b9r7-9-7-9-7/--|
|--------------7-8-9---|-----------9---9-----|
|-(7)-7-10-9-7-7-8-9---|---------------------|
|-(7)-7-10-9-7---------|---------------------|
|
|----------------------|---------------------|
|----------------------|---------------------|
|----------------------|---------------------|
|-(9)------------------|---------------------|
|-(7)----------------2-|-(2)-------------2/--|
|--------------------0-|-(0)-----------------|


  Q=169
  E5
    PM-----|
|--------------------|----------------------|
|--------------------|----------------------|
|--------------------|--------------7-9-7---|
|------------7-8-9---|--------------7-9-7---|
|-7-7-10-9-7-7-8-9-7-|-(7)-7-10-9-7-------7-|
|-7----------------7-|-(7)-7-10-9-7-------7-|
|
|--------------------|----------------------|
|--------------------|----------------------|
|--------------------|----------------------|
|-9----------------9-|-(9)----------------9-|
|-7----------------7-|-(7)----------------7-|
|--------------------|----------------------|


|----------------------|----------------------|
|--------------------9-|-(9)-7b9r7---7---7--9-|
|--------------------9-|-(9)-7b9r7-9-7-9-7--9-|
|--------------7-8-9---|-----------9---9------|
|-(7)-7-10-9-7-7-8-9---|----------------------|
|-(7)-7-10-9-7---------|----------------------|
|
|----------------------|----------------------|
|----------------------|----------------------|
|----------------------|----------------------|
|-(9)------------------|----------------------|
|-(7)----------------2-|-(2)-------------2/---|
|--------------------0-|-(0)------------------|


  Q=167
  E5
|--------------------|----------------------|
|--------------------|----------------------|
|--------------------|--------------7-9-7---|
|------------7-8-9---|--------------7-9-7---|
|-7-7-10-9-7-7-8-9-7-|-(7)-7-10-9-7-------7-|
|-7-7-10-9-7-------7-|-(7)-7-10-9-7-------7-|
|
|--------------------|----------------------|
|--------------------|----------------------|
|--------------------|----------------------|
|-9----------------9-|-(9)----------------9-|
|-7----------------7-|-(7)----------------7-|
|--------------------|----------------------|


|----------------------|-----------------------||
|--------------------9-|-(9)-7b9r(7)---7---7\--||
|--------------------9-|-(9)-7b9r(7)-9-7-9-7\--||
|--------------7-8-9---|-------------9---9-----||
|-(7)-7-10-9-7-7-8-9---|-----------------------||
|-(7)-7-10-9-7---------|-----------------------||
|
|----------------------|-----------------------||
|----------------------|-----------------------||
|----------------------|-----------------------||
|-(9)------------------|-----------------------||
|-(7)----------------2-|-(2)---------------5\--||
|--------------------0-|-(0)-------------------||


 Bridge
  Q=164
  E5     BbA5G5E5          E5  Bb5 E5
     PM|               PM|   PM  PM
|----------------|-------------------|
|----------------|-------------------|
|----------------|-------------------|
|----------------|---------9---------|
|-2--x-x-8-7-5-2-|-(2)-x-x-7-x-8-x-2-|
|-0--x-x-6-5-3-0-|-(0)-x-x---x-6-x-0-|
|
|----------------|-------------------|
|----------------|-------------------|
|----------------|-------------------|
|----------------|-------------------|
|-2--------------|-------------------|
|-0--------------|-------------------|


            Bb5   A5      G     A G  BbA5G5E5
      PM--|         PM|
|-----------------------|----------------------|
|-----------------------|----------------------|
|-----------------------|----------------------|
|-----------------------|----------------------|
|-(2)-x-x-x-8-(8)s7-x-x-|-2-(2)s4-2--8-7-5-2---|
|-(0)-x-x-x-6-(6)s5-x-x-|-3-(3)s5-3--6-5-3-0---|
|
|-----------------------|----------------------|
|-----------------------|----------------------|
|-----------------------|----------------------|
|-----------------------|------------------2---|
|-----------------------|------------8-7-5-2---|
|-----------------------|------------6-5-3-0---|


            BbA5G5E5          E5  Bb5 E5
      PM--|               PM|   PM  PM
|-------------------|-------------------|
|-------------------|-------------------|
|-------------------|-------------------|
|-------------------|---------9---------|
|-(2)-x-x-x-8-7-5-2-|-(2)-x-x-7-x-8-x-2-|
|-(0)-x-x-x-6-5-3-0-|-(0)-x-x---x-6-x-0-|
|
|-------------------|-------------------|
|-------------------|-------------------|
|-------------------|-------------------|
|-(2)---------------|-(2)---------------|
|-(2)---------------|-(2)---------------|
|-(0)---------------|-(0)---------------|


            Bb5   A5      G       A G   BbA5G5E5
      PM--|         PM|               PM
|-----------------------|-------------------------||
|-----------------------|-------------------------||
|-----------------------|-------------------------||
|-----------------------|-------------------------||
|-(2)-x-x-x-8-(8)s7-x-x-|--2--(2)s4-2-x-8-7-5-2---||
|-(0)-x-x-x-6-(6)s5-x-x-|--3--(3)s5-3-x-6-5-3-0---||
|
|-----------------------|-------------------------||
|-----------------------|-------------------------||
|-----------------------|---------------------9---||
|-(2)-------------------|-(2)---------------------||
|-(2)-------------------|-(2)-----------8-7-5-7---||
|-----------------------|---------------6-5-3-----||


              Bb5     A5      G5      E5
        PM--|
||--------------------------------------|
||o-------------------------------------|
||--------------------------------------|
||--------------------------------------|
||o-(2)-x-x-x--8-------7-------5------2-|
||--(0)-x-x-x--6-------5-------3------0-|
|
|       PM--|
||--------------------------------------|
||o-------------------------------------|
||--(9)-------15-(15)s14-(14)s12-(12)s9-|
||--------------------------------------|
||o-(7)-x-x-x-13-(13)s12-(12)s10-(10)s7-|
||------x-x-x---------------------------|


          E5  Bb5 E5            Bb5   A5
      PM|   PM  PM        PM--|         PM|
|-------------------|-----------------------|
|-------------------|-----------------------|
|-------------------|-----------------------|
|---------9---------|-----------------------|
|-(2)-x-x-7-x-8-x-2-|-(2)-x-x-x-8-(8)s7-x-x-|
|-(0)-x-x---x-6-x-0-|-(0)-x-x-x-6-(6)s5-x-x-|
|
|     PM|   PM  PM        PM--|         PM|
|-------------------|-----------------------|
|-------------------|-----------------------|
|-(9)-----9---7---9-|-(9)-------7-(7)s9-----|
|-------------------|-----------------------|
|-(7)-x-x-7-x-5-x-7-|-(7)-x-x-x-5-(5)s7-x-x-|
|-----x-x---x---x---|-----x-x-x---------x-x-|


  1.,2.,3.              4.
  G     A G  BbA5G5E5    G     A G  BbA5G5F#5
                      4x
|---------------------||--------------------||
|--------------------o||--------------------||
|---------------------||--------------------||
|---------------------||--------------------||
|-2-(2)s4-2--8-7-5-2-o||-2-(2)s4-2--8-7-5-4-||
|-3-(3)s5-3--6-5-3-0--||-3-(3)s5-3--6-5-3-2-||
|
|                     4x
|---------------------||--------------------||
|--------------------o||--------------------||
|-4-(4)s6-4--9-9-7-9--||-4-(4)s6-4----------||
|---------------------||--------------------||
|-2-(2)s4-2--7-7-5-7-o||-2-(2)s4-2--8-7-5-4-||
|---------------------||------------6-5-3-2-||


   4th, 5th, 6th & 7th Verses
    F#5
        PM---------------------
||----------------------------|
||o---------------------------|
||----------------------------|
||----------------------------|
||o-(4)-4-4-4-4-4-4-4-4-4-4-4-|
||--(2)-2-2-2-2-2-2-2-2-2-2-2-|
|
|       PM---------------------
||----------------------------|
||o---------------------------|
||----------------------------|
||----------------------------|
||o-(4)-4-4-4-4-4-4-4-4-4-4-4-|
||--(2)-2-2-2-2-2-2-2-2-2-2-2-|


                  E5G5F#5
 -----------------|           PM------------------|
|-----------------------|---------------------------|
|-----------------------|---------------------------|
|-----------------------|---------------------------|
|-----------------------|---------------------------|
|-4-4-4-4-4-4-4-4-2-5-4-|-(4)-4-4-4-4-4-4-4-4-4-4-4-|
|-2-2-2-2-2-2-2-2-0-3-2-|-(2)-2-2-2-2-2-2-2-2-2-2-2-|
|
|-----------------|           PM----------------|
|-----------------------|---------------------------|
|-----------------------|---------------------------|
|-----------------------|---------------------------|
|-----------------------|---------------------------|
|-4-4-4-4-4-4-4-4-2-5-4-|-(4)-4-4-4-4-4-4-4-4-4-4-4-|
|-2-2-2-2-2-2-2-2-0-3-2-|-(2)-2-2-2-2-2-2-2-2-2-2-2-|


                    E5C5F#5                   E5G5E5                    G5F#5
      PM------------|           PM------------|           PM--------|
|-------------------------|-------------------------|-----------------------|
|-------------------------|-------------------------|-----------------------|
|-------------------------|-------------------------|-----------------------|
|---------------------5---|-------------------------|-----------------------|
|-(4)-4-4-4-4-4-4-4-2-3-4-|-(4)-4-4-4-4-4-4-4-2-5-2-|-(2)-2-2-2-2-2-2-2-5-4-|
|-(2)-2-2-2-2-2-2-2-0---2-|-(2)-2-2-2-2-2-2-2-0-3-0-|-(0)-0-0-0-0-0-0-0-3-2-|
|
|     PM------------|           PM------------|           PM--------|
|-------------------------|-------------------------|-----------------------|
|-------------------------|-------------------------|-----------------------|
|-------------------------|-------------------------|-----------------4-7-6-|
|---------------------5---|-------------------------|-----------------------|
|-(4)-4-4-4-4-4-4-4-2-3-4-|-(4)-4-4-4-4-4-4-4-2-5-2-|-(2)-2-2-2-2-2-2-2-5-4-|
|-(2)-2-2-2-2-2-2-2-0---2-|-(2)-2-2-2-2-2-2-2-0-3-0-|-(0)-0-0-0-0-0-0-------|


                  B5 E5
      PM----------|
|----------------------||
|----------------------||
|----------------------||
|-----------------4--9-||
|-(4)-4-4-4-4-4-4-2--7-||
|-(2)-2-2-2-2-2-2------||
|
|     PM----------|
|----------------------||
|----------------------||
|-(6)----------------9-||
|-----------------4----||
|-(4)-4-4-4-4-4-4-2--7-||
|-----2-2-2-2-2-2------||


 Breakdown
            Bb5     A5      G5      E5          E5  Bb5 E5
                                            PM|   PM  PM
|-------------------------------------|-------------------|
|-------------------------------------|-------------------|
|-------------------------------------|-------------------|
|-(9)\--------------------------------|---------9---------|
|-(7)\--x-x--8-------7-------5------2-|-(2)-x-x-7-x-8-x-2-|
|-------x-x--6-------5-------3------0-|-(0)-x-x---x-6-x-0-|
|
|                                           PM|   PM  PM
|-------------------------------------|-------------------|
|-------------------------------------|-------------------|
|-(9)\------15-(15)s14-(14)s12-(12)s9-|-(9)-----9---7---9-|
|-------------------------------------|-------------------|
|-(7)\--x-x-13-(13)s12-(12)s10-(10)s7-|-(7)-x-x-7-x-5-x-7-|
|-------x-x---------------------------|-----x-x---x---x---|


                         1.,2.,3.               4.
            Bb5   A5      G     A G  BbA5G5F#5   G     A G  BbA5G5   F#5
      PM--|         PM|
                                              4x
|-----------------------|---------------------||-------------------------||
|-----------------------|--------------------o||-------------------------||
|-----------------------|---------------------||-------------------------||
|-----------------------|---------------------||-------------------------||
|-(2)-x-x-x-8-(8)s7-x-x-|-2-(2)s4-2--8-7-5-4-o||-2-(2)s4-2--8-7-5-----4--||
|-(0)-x-x-x-6-(6)s5-x-x-|-3-(3)s5-3--6-5-3-2--||-3-(3)s5-3--6-5-3-----2--||
|
|     PM--|         PM|
|                                             4x
|-----------------------|---------------------||-------------------------||
|-----------------------|--------------------o||-------------------------||
|-(9)-------7-(7)s9-----|-4-(4)s5-4-----------||-4-(4)s5-4---------------||
|-----------------------|---------------------||-------------------------||
|-(7)-x-x-x-5-(5)s7-x-x-|-2-(2)s4-2--8-7-5-4-o||-2-(2)s4-2--8-7----------||
|-----x-x-x---------x-x-|------------6-5-3-2--||------------6-5-3b6==(3)-||


 Outro
  F#5                                        E5G5F#5
       PM------------------------------------|           PM----------------|
|----------------------------|---------------------|---------------------------|
|----------------------------|---------------------|---------------------------|
|----------------------------|---------------------|---------------------------|
|----------------------------|---------------------|---------------------------|
|-(4)--4-4-4-4-4-4-4-4-4-4-4-|-4-4-4-4-4-4-4-2-5-4-|-(4)-4-4-4-4-4-4-4-4-4-4-4-|
|-(2)--2-2-2-2-2-2-2-2-2-2-2-|-2-2-2-2-2-2-2-0-3-2-|-(2)-2-2-2-2-2-2-2-2-2-2-2-|
|
|      PM------------------------------------|           PM------------------|
|----------------------------|---------------------|---------------------------|
|----------------------------|---------------------|---------------------------|
|----------------------------|---------------------|---------------------------|
|----------------------------|---------------------|---------------------------|
|------4-4-4-4-4-4-4-4-4-4-4-|-4-4-4-4-4-4-4-2-5-4-|-(4)-4-4-4-4-4-4-4-4-4-4-4-|
|-(3)r-2-2-2-2-2-2-2-2-2-2-2-|-2-2-2-2-2-2-2-0-3-2-|-(2)-2-2-2-2-2-2-2-2-2-2-2-|


                  E5C5F#5                 E5C5F#5                 E5C5F#5
      PM----------|           PM----------|           PM----------|
|-----------------------|-----------------------|------------------------|
|-----------------------|-----------------------|------------------------|
|-----------------------|-----------------------|------------------------|
|-------------------5---|-------------------5---|-------------------5----|
|-(4)-4-4-4-4-4-4-2-3-4-|-(4)-4-4-4-4-4-4-2-3-4-|-(4)-4-4-4-4-4-4-2-3-4--|
|-(2)-2-2-2-2-2-2-0---2-|-(2)-2-2-2-2-2-2-0---2-|-(2)-2-2-2-2-2-2-0---2--|
|
|     PM----------|           PM----------|           PM----------|
|-----------------------|-----------------------|------------------------|
|-----------------------|-----------------------|------------------------|
|-----------------------|-----------------------|------------------------|
|-------------------5---|-------------------5---|-------------------5----|
|-(4)-4-4-4-4-4-4-2-3-4-|-(4)-4-4-4-4-4-4-2-3-4-|-(4)-4-4-4-4-4-4-2-3-4--|
|-(2)-2-2-2-2-2-2-0---2-|-(2)-2-2-2-2-2-2-0---2-|-(2)-2-2-2-2-2-2-0---2--|


      E5C5F#5E5C5F#5     E5G5F#5E5C5E5
      PM     PM          PM     PM
|------------------|------------------|
|------------------|------------------|
|------------------|------------------|
|-------5------5---|--------------5---|
|-(4)-2-3-4--2-3-4-|-(4)-2-5-4--2-3-2-|
|-(2)-0---2--0---2-|-(2)-0-3-2--0-----|
|
|     PM     PM          PM     PM
|------------------|------------------|
|------------------|------------------|
|------------------|------------------|
|-------5------5---|--------------5---|
|-(4)-2-3-4--2-3-4-|-(4)-2-5-4--2-3-2-|
|-(2)-0---2--0---2-|-(2)-0-3-2--0---0-|


|----------------------------------------------------|
|----------------------------------------------------|
|----------------------------------------------16h19p|
|-------------------------------14h17p14-16h17-------|
|-----------13h17p13-(13)s15h17----------------------|
|-12h=14h15------------------------------------------|
|
|----------------------------------------------------|
|----------------------------------------------------|
|----------------------------------------------------|
|----------------------------------------------------|
|-(2)------------------------------------------------|
|-(0)------------------------------------------------|


                                            B5
                                                              <
|--------------------/19-22-22b24===(22)--|-(22)r-x\-------|-14-----|
|----------17-/20-19----------------------|-------x\-------|--------|
|-16s18-19--------------------------------|----------------|--------|
|-----------------------------------------|----------------|--------|
|-----------------------------------------|----------------|--------|
|-----------------------------------------|----------------|--------|
|
|-----------------------------------------|----------------|--------|
|-----------------------------------------|----------------|--------|
|-----------------------------------------|---4------------|-(4)----|
|-----------------------------------------|---4------------|-(4)----|
|--2-------------------------3------------|---2------------|-(2)----|
|--0-------------------------1------------|----------------|--------|


                                                          B5
|-(14)--------|-(14)--------|-(14)--------|-(14)--------|-----------*|
|-------------|-------------|-------------|-------------|-----------*|
|-------------|-(11)--------|-(11)--------|-(11)--------|-4\--------*|
|-------------|-------------|-------------|-------------|-4\--------*|
|-------------|-------------|-------------|-------------|-2\--------*|
|-------------|-------------|-------------|-------------|-----------*|
|
|-------------|-------------|-------------|-------------|-----------*|
|-------------|-------------|-------------|-------------|-----------*|
|--(4)--------|--(4)--------|--(4)--------|--(4)--------|-4\--------*|
|--(4)--------|--(4)--------|--(4)--------|--(4)--------|-4\--------*|
|--(2)--------|--(2)--------|--(2)--------|--(2)--------|-2\--------*|
|-------------|-------------|-------------|-------------|-----------*|



Comments