Megadeth - Sweting Bullets Chords & Tabs

 

Sweting Bullets Chords & Tabs

Megadeth Chords & Tabs

Version: 1 Type: Tab 1 rating
1 star 2 stars 3 stars 4 stars 5 stars
comments

Sweting Bullets Tab

   
|-----------|-------------|-----------|-----------|
|---------3-|-2-----------|---------3-|-2--/7-4---|
|----2-4----|----4-3--3-4-|----2-4----|---------4-|
|-5---------|-------------|-5---------|-----------|
|-----------|-------------|-----------|-----------|
|-----------|-------------|-----------|-----------|
                                                         
|-----------|-------------|-----------|-----------|
|---------3-|-2-----------|-----------|-----------|
|----2-4----|----4-3--3-4-|-----------|-----------|
|-5---------|-------------|-5---------|-----------|
|-----------|-------------|-----------|-------8-7-|
|-----------|-------------|-----------|-------6-5-|
 
[Figure A]
|-----------|-------------|-----------|-----------|
|-----------|-------------|-----------|-----------|
|-----------|-------------|-----------|-----------|
|-9---------|-------------|-9---------|-----------|
|-7---------|---------8-7-|-7---------|-------8-7-|
|-----------|---------6-5-|-----------|-------6-5-|
                                                               
Repeat Figure A                                                               
Repeat Figure A
                                        Pick Slide
|-----------|-------------|-----------|-----------|
|-----------|-------------|-----------|-\---------|
|-----------|-------------|-----------|---\-------|
|-9---------|-------------|-9---------|-----\-----|
|-7---------|---------8-7-|-7---------|-------\---|
|-----------|---------6-5-|-----------|-----------|
     
    hold bend....   hold bend....        hold bend....   hold bend....
|-12------^^^^^^--11------|^^^^^^^---|-10-----^^^^^^^---9------|^^^^^^^---|
|-15
[ Tab from: http://www.guitartabs.cc/tabs/m/megadeth/sweting_bullets_tab.html ]
Comments