Megadeth - Skin O My Teeth Chords & Tabs

 

Skin O My Teeth Chords & Tabs

Megadeth Chords & Tabs

Version: 1 Type: Bass Tab 0 ratings
1 star 2 stars 3 stars 4 stars 5 stars
comments

Skin O My Teeth Bass Tab

Skin O' My Teeth - Megadeth
Jon Craven (i_apathy@hotmail.com; www.homestead.com/larsramirez)
(enters after 4 measures)

Intro:
G:-----------|-----------|-----------|------------|
D:-----------|-----------|-----------|------------|
A:-----------|-----------|-----------|------------|
E:-5***-4***-|-3***-2***-|-1***-0***-|-5--R--R--R-|
B:-----------|-----------|-----------|------------|

Pause for 7 measures

Riff 1: (x3)
G:----------------|-----------------|----------------|-----------------|
D:----------------|-----------------|----------------|-----------------|
A:-------3-3-3-5*-|-5-5-5-5-5-5-5-5-|-------3-3-3----|-----------------|
E:-5-5-5----------|-----------------|-5-5-5-------5*-|-5-5-5-5-5-5-5-5-|
B:----------------|-----------------|----------------|-----------------|

Riff 2:
G:----------------|-----------------|-7-7-7-5-5-5----|---------------|
D:----------------|-----------------|-------------7*-|-7-5-----------|
A:-------3-3-3-5*-|-5-5-5-5-5-5-5-5-|----------------|-----7-6-5-----|
E:-5-5-5----------|-----------------|----------------|-----------8-5-|
B:----------------|-----------------|----------------|---------------|

Riff 3:
G:-----------|---------------|-----------|---------------|-----------|---------------|-----------|
D:-----------|---------------|-----------|---------------|-----------|---------------|-----------|
A:-----------|---------------|-----------|----5-5-5--5-5-|-----------|---------------|-----------|
E:-5***-4***-|-3--3-3-3--3-3-|-----------|---------------|-5***-4***-|-3--3-3-3--3-3-|-----------|
B:-----------|---------------|-6***-5***-|-3-------------|-----------|---------------|-6***-5***-|

G:-----------------|-----------|---------------|-----------|---------------|-----------|
D:-----------------|-----------|---------------|-----------|---------------|-----------|
A:-5-5-5-5-5-5-5-5-|-----------|---------------|-----------|----5-5-5--5-5-|-----------|
E:-----------------|-5***-4***-|-3--3-3-3--3-3-|-----------|---------------|-5***-4***-|
B:-----------------|-----------|---------------|-6***-5***-|-3-------------|-----------|

G:---------------|-----------|----------|----------|
D:---------------|-----------|----------|----------|
A:---------------|-----------|-5~~~~~~~-|-~~~~~~~~-|
E:-3--3-3-3--3-3-|-----------|----------|----------|
B:---------------|-6***-5***-|----------|----------|

Riff 1 (x3)
Riff 2
Riff 3
[ Tab from: http://www.guitartabs.cc/tabs/m/megadeth/skin_o_my_teeth_btab.html ]
Riff 4:
G:---------------|---------------|---------------|---------------|----------------|--------------|
D:---------------|---------------|---------------|---------------|----------------|--------------|
A:-------3-------|-3-2-0-2-0-----|-------3-------|-2-0---0-------|-------------0*-|-5-5-5-5-3***-|
E:-5-3-----3-5**-|-----------3-0-|-5-3-----3-5**-|-----3---3-1-0-|-2-2-2-3-3-3----|--------------|
B:-----5---------|---------------|-----5---------|---------------|----------------|--------------|

G:---------------|--------------|---------------|---------------|---------------|---------------|
D:---------------|--------------|---------------|---------------|---------------|---------------|
A:-------3-------|--------------|-------3-------|-3-2-0-2-0-----|-------3-------|-2-0---0-------|
E:-5-3-----3-5**-|-3-3-3-3-5***-|-5-3-----3-5**-|-----------3-0-|-5-3-----3-5**-|-----3---3-1-0-|
B:-----5---------|--------------|-----5---------|---------------|-----5---------|---------------|

G:----------------|--------------|---------------|---------------|---------------|---------------|
D:----------------|--------------|---------------|---------------|---------------|---------------|
A:-------------0*-|-5-5-5-5-3***-|-------5-------|-5-4-2-4-2-----|-------5-------|-4-2-0-2-0-----|
E:-2-2-2-3-3-3----|--------------|-7-5-----5-7**-|-----------5-2-|-7-5-----5-7**-|-----------3-2-|
B:----------------|--------------|-----7---------|---------------|-----7---------|---------------|

G:---------------|---------------|---------------|-----------|---------------|---------------|
D:---------------|---------------|---------------|-----------|---------------|---------------|
A:-------5-------|-5-4-2-4-2-----|-------5-------|-----------|-------3-------|-3-2-0-2-0-----|
E:-7-5-----5-7**-|-----------5-2-|-7-5-----5-7**-|-7***-6--5-|-5-3-----3-5**-|-----------3-0-|
B:-----7---------|---------------|-----7---------|-----------|-----5---------|---------------|

G:---------------|---------------|---------------|--------------|---------------|--------------|
D:---------------|---------------|---------------|--------------|---------------|--------------|
A:-------3-------|-2-0---0-------|-------3-------|-5-5-5-5-3***-|-------3-------|--------------|
E:-5-3-----3-5**-|-----3---3-1-0-|-5-3-----3-5**-|--------------|-5-3-----3-5**-|-3-3-3-3-5***-|
B:-----5---------|---------------|-----5---------|--------------|-----5---------|--------------|

Intro
Pause for 7 measures
Riff 1 (x3)
Riff 2
Riff 3 (hold last note for 1 more measure)

End:
G:----------------|-----------------|--------------|
D:----------------|-----------------|--------------|
A:-------3-3-3-5*-|-5-5-5-5-5-5-5-5-|---------3--0-|
E:-5-5-5----------|-----------------|-5-4-3-0------|
B:----------------|-----------------|--------------|
Comments